Hendrix Jimi - Aint No Telling Chords & Tabs

 

Aint No Telling Chords & Tabs

Hendrix Jimi Chords & Tabs

Version: 1 Type: Bass Tab 0 ratings
1 star 2 stars 3 stars 4 stars 5 stars
comments

Aint No Telling Bass Tab

Ain't No Telling - Jimi Hendrix

  verse riff chorus                          
G|---------|--------------------------------|---------------------------------------------------
D|---------|--------------------------------|---------------------------------------------------
A|3-3---3--|--1---2-1--2--3-3---3--3\-333333|/4-3-3-3-/4-3-3-3-/4-333333-------1----------------
E|----35-53|13--24------------35-53---------|----3-3-3----3-3-3---------2-33333-3211111111344444


-----------------------------2--2-----------------------|
---------------------------2-------4--2-----------------|
---333333--------1----------------------4-2--------234-2|
535------01233333-3211111-4-----------------2-13-4------|
[ Tab from: http://www.guitartabs.cc/tabs/h/hendrix_jimi/aint_no_telling_btab.html ]
  second verse
G|--------------------------------1--------------------------------------|
D|-----------------------------------------------------------------------|
A|3-3---3---3-3---3---3-3---3---3----33--33--333--5---3-3---5---3-3---5--|
E|----35-53-----35-53-----35-53-----------------35-53-----35-53-----35-53|

  chorus                           outro
G|--------------------------------|-----------------------------------------|
D|--------------------------------|555--------------------------------------|
A|--1---2-1--2--3-3--5---3-3---5--|-----2-1--2--3--33--3---33--simile---3---|
E|13--24-----------35-53-----35-53|---24----------1-------1-----------1-----|

tabbed by Achilles (blue_sincere@hotmail.com)
Comments