Helmet - Unsung Chords & Tabs

 

Unsung Chords & Tabs

Helmet Chords & Tabs

Version: 2 Type: Bass Tab 0 ratings
1 star 2 stars 3 stars 4 stars 5 stars
comments

Unsung Bass Tab

   
    Helmet
    "Unsung"
    off of "Meantime"
    
    They're probably in drop D but I'm lazy and have a 5-string
    
    
    opening riff:                
       repeat a lot
    G |-------------------|-----|
    D |.-----------------.|-----|
    A |.-----------------.|-----|
    E |--0-0-0-1-1-1-3-3--|-----|
    B |-------------------|--3--|
    
    
    Verse:
    E |.-------------------------------------------------------------.|
    B |.--5-5-5---5-3-5---5-5-5---5-3-5---5-3-5----5-5-5-6-6-6-7-7---.|
    
    
    Chorus:  Follow the chord progression in eigth notes
                                  H    H    H    H P H
    E |.-----|-----|--8--|--5---3-5--3-5--3-5--3-5-3-5---.|
    B |.--3--|--5--|-----|-------------------------------.|
    
    H=Hammer-on
    P=Pull-off
    
    
    essomdah@unity.ncsu.edu Forgetting more about UNIX each day than most people
    eric@datasolv.com       forget in a year
    

[ Tab from: http://www.guitartabs.cc/tabs/h/helmet/unsung_btab_ver_2.html ]
Comments