Helmet - Speechless Chords & Tabs

 

Speechless Chords & Tabs

Helmet Chords & Tabs

Version: 2 Type: Tab 0 ratings
1 star 2 stars 3 stars 4 stars 5 stars
comments

Speechless Tab

Artist: Helmet
Album: Betty
Tabbed By: Simon Robson


Dropped D tuning

INTRO

E:|------------------------------------------------------|
B:|------------------------------------------------------|
G:|------------------------------------------------------|
D:|---0-----5--4--3------2-2-2-2-2-2-2-2-2-2-2-2-2-2-2-2-|
A:|---0-----5--4--3------2-2-2-2-2-2-2-2-2-2-2-2-2-2-2-2-|
D:|---0-----5--4--3------2-2-2-2-2-2-2-2-2-2-2-2-2-2-2-2-|

MAIN RIFF

E:|---------------------------------------------------|
B:|---------------------------------------------------|
G:|---------------------------------------------------|
D:|---0------0-----6-4-6---0------0--X-X-X-X-X-6-4-6--|
A:|---0------0-----6-4-6---0------0--X-X-X-X-X-6-4-6--|
D:|---0------0-----6-4-6---0------0--X-X-X-X-X-6-4-6--|

BRIDGE 1

E:|--------------------------------------|
B:|--------------------------------------|
G:|--------------------------------------|
D:|--3-3-3-3-3-3-3-3--2-2-2-2-2-2-2-2-2--|
A:|--3-3-3-3-3-3-3-3--2-2-2-2-2-2-2-2-2--|
D:|--3-3-3-3-3-3-3-3--2-2-2-2-2-2-2-2-2--|

BRIDGE 2

E:|-------------------------------|
B:|-------------------------------|
G:|-------------------------------|
D:|--3-3-3-3-3-3-3-3-3---0-0-5-5--|
A:|--3-3-3-3-3-3-3-3-3---0-0-5-5--|
D:|--3-3-3-3-3-3-3-3-3---0-0-5-5--|


CHORUS 1

E:|-----------------------------------|
B:|-----------------------------------|
G:|-----------------------------------|
D:|--0-0-0-0-8-8-8-8-3-3-3-3-5-5-5-5--|
A:|--0-0-0-0-8-8-8-8-3-3-3-3-5-5-5-5--|
D:|--0-0-0-0-8-8-8-8-3-3-3-3-5-5-5-5--|
[ Tab from: http://www.guitartabs.cc/tabs/h/helmet/speechless_tab_ver_2.html ]
first time to chorus 1 riff, replace 
E:|-----------|        |-----------|
B:|-----------|        |-----------|
G:|-----------|        |-----------|
D:|--0-0-0-0--|  with  |--1-1-1-1--|
A:|--0-0-0-0--|        |--1-1-1-1--|
D:|--0-0-0-0--|        |--1-1-1-1--|

CHORUS 2

E:|----------------------------------------------|
B:|----------------------------------------------|
G:|----------------------------------------------|
D:|--7-7-7-7--8-8-8-8--10-10-10-10--12-12-12-12--|
A:|--7-7-7-7--8-8-8-8--10-10-10-10--12-12-12-12--|
D:|--7-7-7-7--8-8-8-8--10-10-10-10--12-12-12-12--|

E:|--------------------------------------|
B:|--------------------------------------|
G:|--------------------------------------|
D:|--7-7-7-7--8-8-8-8--3-3-3-3--5-5-5-5--|
A:|--7-7-7-7--8-8-8-8--3-3-3-3--5-5-5-5--|
D:|--7-7-7-7--8-8-8-8--3-3-3-3--5-5-5-5--|

E:|----------------------------------------------|
B:|----------------------------------------------|
G:|----------------------------------------------|
D:|--7-7-7-7--8-8-8-8--10-10-10-10--10-10-10-10--|
A:|--7-7-7-7--8-8-8-8--10-10-10-10--10-10-10-10--|
D:|--7-7-7-7--8-8-8-8--10-10-10-10--10-10-10-10--|

SOLO RIFF

E:|--------------------|
B:|--------------------|
G:|--------------------|
D:|--0-1-3--0-1-3-3-4--|
A:|--0-1-3--0-1-3-3-4--|
D:|--0-1-3--0-1-3-3-4--|

Then back to chorus riff 1 and end with

E:|-----|
B:|-----|
G:|-----|
D:|--3--|
A:|--3--|
D:|--3--|
 
Those are just the basic root power chords..the real ones probably 
have a few other notes in there, but this sounds pretty much right.

Enjoy!!!
Comments