Helmet - Insatiable Chords & Tabs

 

Insatiable Chords & Tabs

Helmet Chords & Tabs

Version: 1 Type: Tab 0 ratings
1 star 2 stars 3 stars 4 stars 5 stars
comments

Insatiable Tab

   
-----------------------------------------------------------------------------
                        INSATIABLE - Helmet
-----------------------------------------------------------------------------

Tabbed by an17nin17
Email - c.norman83@ntlworld.com

Drop D Tuning - D, A, D, G, B, E
 
Intro/Verse

|---------------------------------------|
|---------------------------------------|
|---------------------------------------|
|-2-0-0-2--2-0-0-0-2---2-0-0-2--2-0-0-3-|
|-2-0-0-2--2-0-0-0-2---2-0-0-2--2-0-0-3-|
|-2-0-0-2--2-0-0-0-2---2-0-0-2--2-0-0-3-|
  Play x 8

Break

|----------------------------|
|-0~~~-----------------------|
|-0~~~-----------------------|
|-5~~~-----------------------|
|-5~~~-----------------------|
|-5~~~---5-5-4-4-3-3-2-2-0-0-|
         PM...................................................

|---------------------------------------|
|---------------------------------------|
|---------------------------------------|
|-2-0-0-2--2-0-0-0-2---2-0-0-2--2-0-0-3-|
|-2-0-0-2--2-0-0-0-2---2-0-0-2--2-0-0-3-|
|-2-0-0-2--2-0-0-0-2---2-0-0-2--2-0-0-3-|
  Play x 6

Chorus
[ Tab from: http://www.guitartabs.cc/tabs/h/helmet/insatiable_tab.html ]
|-----------|--------------------------------------|
|-----------|--------------------------------------|
|-----------|--------------------------------------|
|-0-0-3-0-0-|-7--8--9--0-3-2-0--7-7-7-8-9--0-3-2-0-|
|-0-0-3-0-0-|-7--8--9--0-3-2-0--7-7-7-8-9--0-3-2-0-|
|-0-0-3-0-0-|-7--8--9--0-3-2-0--7-7-7-8-9--0-3-2-0-|
  PM..................... | Play x 4

Middle 8

|--------------------------------------|
|--------------------------------------|
|--------------------------------------|
|-2-0-0-2--2-0-0-0-2--2-0-0-2--2-0-0-3-|
|-2-0-0-2--2-0-0-0-2--2-0-0-2--2-0-0-3-|
|-2-0-0-2--2-0-0-0-2--2-0-0-2--2-0-0-3-|
  PM..................................
  Play x 4

|------------------------------------|
|------------------------------------|
|------------------------------------|
|-0-0-0-2--0-0-0-2--0-0-0-2--0-0-0-3-|
|-0-0-0-2--0-0-0-2--0-0-0-2--0-0-0-3-|
|-0-0-0-2--0-0-0-2--0-0-0-2--0-0-0-3-|
  Play x 4

Outro

|--------------------------------------|---------------------------|
|--------------------------------------|-0~~-----------------------|
|--------------------------------------|-0~~-----------------------|
|-7--8--9--0-3-2-0--7-7-7-8-9--0-3-2-0-|-5~~---5-5-4-4-3-3-2-2-0-0-|
|-7--8--9--0-3-2-0--7-7-7-8-9--0-3-2-0-|-5~~---5-5-4-4-3-3-2-2-0-0-|
|-7--8--9--0-3-2-0--7-7-7-8-9--0-3-2-0-|-5~~---5-5-4-4-3-3-2-2-0-0-|
  Play x 6                             |

Contact me if you have any comments about this tab.
Comments