Helmet - Diet Aftertaste Chords & Tabs

 

Diet Aftertaste Chords & Tabs

Helmet Chords & Tabs

Version: 1 Type: Tab 0 ratings
1 star 2 stars 3 stars 4 stars 5 stars
comments

Diet Aftertaste Tab

   




Artist: Helmet
Album: Aftertaste
Song: Diet Aftertaste
Tabbed By: Simon Robson




(this a few times)   then   *
E-----0-----------------------------------------------
B-----3-----------------11-11-------------------------
G-----2-----------------10-10-------------------------
D-3-0-0-0-3-3----------- 8- 8-8-8-8-6-6-6-6-6-6-6-5-0-
A-3-0---0-3-3-------8-8- 8- 8-8-8-8-6-6-6-6-6-6-6-5-0-
D-3-0---0-3-3-------8-8- 8- 8-8-8-8-6-6-6-6-6-6-6-5-0-

(It's another guitar that does that higher octave power chord-*)

Somewhere this chord is thrown in by another guitar:
I'm pretty sure that's not right, but it's the closest thing I can come up
with.  

E---
B-4-
G-3-
D-1-

E----------0-------------------
B----------3-------------------
G----------2--------------------
D-0-3--0-0-0-0-0-3-3----1-0-3-0-
A-0-3--0-0---0-0-3-3----1-0-3-0-
D-0-3--0-0---0-0-3-3----1-0-3-0-

Chorus

D-0-10-12-0-12-12-10-0-3-3-3-5-5-5-3-0
A-0-10-12-0-12-12-10-0-3-3-3-5-5-5-3-0
D-0-10-12-0-12-12-10-0-3-3-3-5-5-5-3-0


D-0--0-3-5-5-3-3-5----0--0-3-5-5-3-3-5-3-0
A-0--0-3-5-5-3-3-5----0--0-3-5-5-3-3-5-3-0
D-0--0-3-5-5-3-3-5----0--0-3-5-5-3-3-5-3-0

D-0-0-3-5-5-3-3-5-5-0---0-0-3-5-5-3-3-5-3-0---
A-0-0-3-5-5-3-3-5-5-0---0-0-3-5-5-3-3-5-3-0---
D-0-0-3-5-5-3-3-5-5-0---0-0-3-5-5-3-3-5-3-0---

E------
D------
G-2----
D-2-3--
A-0-3--
D---3--

Solo:
this is basicly just some string bends with LOTS of harmonics, feedback, and 
distortion


            bend this string really high
E----------15+(17)+(18)(15)-15+(18)-----------------------------------------
B---------------------------------------------------------------------------
G--14-------------------------------12+(14)----(14-12)-12+(14)-12^14^12-----
D----------------------------------------------------------------------14^12
A---------------------------------------------------------------------------
D---------------------------------------------------------------------------
        ^
at this part, it's a bunch of, low, garbled noise and feedback


you get the drift.

It ends on

E---
B-6-
G-5-
D-3-
A-3-
D-3-
As usual, dropped D tuning

Riff 1a				Riff 1b
							**
1:||-------------------||	1:||--------------------------||
2:||-------------------||	2:||--------------------------||
3:||--------7----------||	3:||--------7----------3____--||
4:||--3--0--7--0h3--3--||	4:||--3--0--7--0h3--3--3____--||
5:||--3--0--5--0h3--3--||	5:||--3--0--5--0h3--3--3____--||
6:||--3--0-----0h3--3--||	6:||--3--0-----0h3--3---------||

					** - 3___ = let ring

Riff 2
[ Tab from: http://www.guitartabs.cc/tabs/h/helmet/diet_aftertaste_tab.html ]
1:||----------------------------------------------------------------||
2:||----------------------------------------------------------------||
3:||--------7-------------------------------------------------------||
4:||--3--0--7--0h3--3-3-3-3-3-3-3-3-8-8-8-8-8-8-8-8-6-6-6-6-6-6-5\--||
5:||--3--0--5--0h3--3-3-3-3-3-3-3-3-8-8-8-8-8-8-8-8-6-6-6-6-6-6-5\--||
6:||--3--0-----0h3--3-3-3-3-3-3-3-3-8-8-8-8-8-8-8-8-6-6-6-6-6-6-5\--||


Fill 1

1:||--------------------------------------||
2:||--------------------------------------||
3:||--------------7-----------------------||
4:||--0--3--0--0--7--0-0-3-3--bass---1--0-||
5:||--0--3--0--0--5--0-0-3-3--fill---1--0-||
6:||--0--3--0--0-----0-0-3-3---------1--0-||




Riff 3a

1:||------------------------------------||
2:||------------------------------------||
3:||----5-7--7-7-5-5--------------------||
4:||--0-5-7--7-7-5-5-3-3-3-5-5-5-5-3-0--||
5:||--0-3-5--5-5-3-3-3-3-3-5-5-5-5-3-0--||
6:||--0--------------3-3-3-5-5-5-5-3-0--||

Riff 3b

1:||-------------------------------------------||
2:||-------------------------------------------||
3:||----5-7--7-7-5-5---------------------------||
4:||--0-5-7--7-7-5-5-3-3-3-3-3-3-3-3-3-3-3-3---||
5:||--0-3-5--5-5-3-3-3-3-3-3-3-3-3-3-3-3-3-3---||
6:||--0--------------3-3-3-3-3-3-3-3-3-3-3-3---||


Riff 4

1:||-----------------------------------||
2:||-----------------------------------||
3:||-----------------------------------||
4:||--0-3-5-5-5-3-3-5---3-3-5-5-3-5-0--||
5:||--0-3-5-5-5-3-3-5---3-3-5-5-3-5-0--||
6:||--0-3-5-5-5-3-3-5---3-3-5-5-3-5-0--||


Fill 2

1:||--------------------------------------------||
2:||--------------------------------------------||
3:||--------------------------------------------||
4:||---7-7-7-7-7-7-7-7---3-3-3-3-3-3-3-3-3-3-3--||
5:||---7-7-7-7-7-7-7-7---3-3-3-3-3-3-3-3-3-3-3--||
6:||---7-7-7-7-7-7-7-7---3-3-3-3-3-3-3-3-3-3-3--||


Order is:

Riff 1a
riff 1b
Riff 2
Riff 1a x 6
Riff 2
Fill 1
Riff 1a
Riff 1b
Riff 1a x 3
Riff 1b
Riff 2
Riff 3a x 7
Riff 3b
Riff 4 x 8
Fill 2 x 2 
Riff 3a x 7
Riff 3b


Drop D Tuning

I only got the one riff to this song, here it is

------------------------------------------------------------------------------
-------6-----5--5--5---------------------------3b-r-b-r-----------------------
-------6-----5--5--5---------------------------3b-r-b-r-----------------------
-2--0--4--0--3--3--3----------------------------------------------------------
-2--0--4--0--3--3--3----------------------------------------------------------
-2--0--4--0--3--3--3----------------------------------------------------------
                     After a couple of times...                               


Comments