Helloween - Where The Rain Grows Chords & Tabs

 

Where The Rain Grows Chords & Tabs

Helloween Chords & Tabs

Version: 2 Type: Bass Tab 0 ratings
1 star 2 stars 3 stars 4 stars 5 stars
comments

Where The Rain Grows Bass Tab

Tune down

F#||------------------|------------------|------------------|------------------|
C#||------------------|------------------|------------------|------------------|
G#||------------------|------------------|------------------|------------------|
D#||------------------|------------------|------------------|------------------|


                                                                        
------------------|------------------|---------------------------------|
------------------|------------------|------------------------------12-|
------------------|------------------|--7---------------7-7-10-10-9----|
------------------|------------------|-----0-0-0-0-0-------------------|


                                                                             
------------------9-9-7--9-9-11-11-------|--9---------------9-9-12-12-11----|
--10--------10-10------------------12-12-|-------------------------------12-|
------10-10------------------------------|-----7-7-7-7-7--------------------|
-----------------------------------------|----------------------------------|


                                                                         
------------------9-9-7--------|--9---------------------9-9-12-12-11----|
--10--------10-10--------------|-------------------------------------12-|
------10-10--------------------|-----7-7--7-7-7--7-7--------------------|
-------------------------------|----------------------------------------|


                                                                             
------------------9-9-7--9-9-11-11-------|--9---------------9-9-12-12-11----|
--10--------10-10------------------12-12-|-------------------------------12-|
------10-10------------------------------|-----7-7-7-7-7--------------------|
-----------------------------------------|----------------------------------|


                                                                         
------------------9-9-7-7-7-7-7-7-7-7-|--9--9-9-9-9-9-9-9-9-9-9-9-9-9-9-|
--10--------10-10---------------------|---------------------------------|
------10-10---------------------------|---------------------------------|
--------------------------------------|---------------------------------|


                                                                
--7----------------|--9----------------|------------7------7-7-|
-------------------|-------------------|--10-------------------|
-------------------|-------------------|-----------------------|
-------------------|-------------------|-----------------------|


                                                
--9-------------------|--5----------7----------|
----------------------|------------------------|
-----7------------7-7-|---------7-7--------7-7-|
----------------------|------------------------|


                                  
--9--21------23------24--23--21--|
---------------------------------|
---------21------22------21--19--|
---------------------------------|


                                                   
--------------------------------------------------|
--------------------------------------------------|
--------------------------17-17-17-17-17-17-17-17-|
--20-20-20-20-20-20-20-20-------------------------|


                                   
--------------11------12--14--16--|
------14--------------------------|
------------------10--------------|
--12------14----------------------|


                                                                              
--------------------------------------------------|--9-----------------------|
--------------------------12-12-12-12-12-12-12-12-|--------------------------|
--15-15-15-15-15-15-15-15-------------------------|-----7-7-7-7-7------7--7--|
--------------------------------------------------|--------------------------|


                                                          
--5--7--9------7--9--11------|--9------------------------|
-----------10------------12--|---------------------------|
-----------------------------|-----7-7-7-7-7----7--7--7--|
-----------------------------|---------------------------|


                                                                              
--5--7--9------7--------|--9------------------------|--5--7--9------7--------|
-----------10-----------|---------------------------|-----------10-----------|
------------------------|-----7-7-7-7-7----7--7--7--|------------------------|
------------------------|---------------------------|------------------------|


                                                     
--9------------------------|--5--7--9------7--------|
---------------------------|-----------10-----------|
-----7-7-7-7-7----7--7--7--|------------------------|
---------------------------|------------------------|


                                    
-------7-7--9-9--9-9-9-11-11-14-14-|
--9-9------------------------------|
-----------------------------------|
-----------------------------------|


                                                   
--------------------------------------------------|
--14-14-14-14-14-14-14-14-14-14-14-14-14-14-14-14-|
--------------------------------------------------|
--------------------------------------------------|


                                                        
-------19---17--16---14---12--|------------------------|
------------------------------|--12----10----9----7----|
--15--------------------------|------------------------|
------------------------------|------------------------|


                                    
-------7-7--9-9--9-9-9-11-11-14-14-|
--9-9------------------------------|
-----------------------------------|
-----------------------------------|


                                                   
--------------------------------------------------|
--14-14-14-14-14-14-14-14-14-14-14-14-14-14-14-14-|
--------------------------------------------------|
--------------------------------------------------|


                                                         
-------19---17--16---14---12--|--------9----11----------|
------------------------------|--12---------------12----|
--15--------------------------|-------------------------|
------------------------------|-------------------------|


                                                   
--------------------------------------------------|
--------------------------------------------------|
--10-10-10-10-10-10-10-10-10-10-10-10-10-10-10-10-|
--------------------------------------------------|


                                                                      
--7-7-7-7-7-7-7-7-7-7-7-7-4-4-4-4-|--9-9-9-9-9-9-9-9-9-9-9-9-9-9-9-9-|
----------------------------------|----------------------------------|
----------------------------------|----------------------------------|
----------------------------------|----------------------------------|


                                                                      
--------------------------7-7-7-7-|--0-0-0-0-0-0-0-0-0-0-0-0-0-0-0-0-|
--9-9-9-9-9-9-9-9-9-9-9-9---------|----------------------------------|
----------------------------------|----------------------------------|
----------------------------------|----------------------------------|


                                                                      
--7-7-7-7-7-7-7-7-7-7-7-7-4-4-4-4-|--9-9-9-9-9-9-9-9-9-9-9-9-9-9-9-9-|
----------------------------------|----------------------------------|
----------------------------------|----------------------------------|
----------------------------------|----------------------------------|


                                                             
------------7--------|--9-9-9-9-16-16-16-16-19--17--16--14--|
--10-----------------|--------------------------------------|
---------------------|--------------------------------------|
---------------------|--------------------------------------|


                                           
--------------12-12-12-12-14--12--11------|
--------------------------------------12--|
--15-15-15-15-----------------------------|
------------------------------------------|


                                               
--9-9-9-9-16-16-16-16-19-19-17-17-16-16-------|
----------------------------------------17-17-|
----------------------------------------------|
----------------------------------------------|


                                                                     
--------------12-12-12-12-14--12--11--9--|--9-----------------------|
-----------------------------------------|--------------------------|
--15-15-15-15----------------------------|-----7-7-7-7-7------7--7--|
-----------------------------------------|--------------------------|


                                                          
--5--7--9------7--9--11------|--9------------------------|
-----------10------------12--|---------------------------|
-----------------------------|-----7-7-7-7-7----7--7--7--|
-----------------------------|---------------------------|


                                                                              
--5--7--9------7--------|--9------------------------|--5--7--9------7--------|
-----------10-----------|---------------------------|-----------10-----------|
------------------------|-----7-7-7-7-7----7--7--7--|------------------------|
------------------------|---------------------------|------------------------|


                                                     
--9------------------------|--5--7--9------7--------|
---------------------------|-----------10-----------|
-----7-7-7-7-7----7--7--7--|------------------------|
---------------------------|------------------------|


                                    
-------7-7--9-9--9-9-9-11-11-14-14-|
--9-9------------------------------|
-----------------------------------|
-----------------------------------|


                                                   
--------------------------------------------------|
--14-14-14-14-14-14-14-14-14-14-14-14-14-14-14-14-|
--------------------------------------------------|
--------------------------------------------------|


                                                        
-------19---17--16---14---12--|------------------------|
------------------------------|--12----10----9----7----|
--15--------------------------|------------------------|
------------------------------|------------------------|


                                    
-------7-7--9-9--9-9-9-11-11-14-14-|
--9-9------------------------------|
-----------------------------------|
-----------------------------------|


                                                   
--------------------------------------------------|
--14-14-14-14-14-14-14-14-14-14-14-14-14-14-14-14-|
--------------------------------------------------|
--------------------------------------------------|


                                                         
-------19---17--16---14---12--|--------9----11----------|
------------------------------|--12---------------12----|
--15--------------------------|-------------------------|
------------------------------|-------------------------|


                                                   
--------------------------------------------------|
--------------------------------------------------|
--10-10-10-10-10-10-10-10-10-10-10-10-10-10-10-10-|
--------------------------------------------------|


                                                                      
--7-7-7-7-7-7-7-7-7-7-7-7-4-4-4-4-|--9-9-9-9-9-9-9-9-9-9-9-9-9-9-9-9-|
----------------------------------|----------------------------------|
----------------------------------|----------------------------------|
----------------------------------|----------------------------------|


                                                                      
--------------------------7-7-7-7-|--0-0-0-0-0-0-0-0-0-0-0-0-0-0-0-0-|
--9-9-9-9-9-9-9-9-9-9-9-9---------|----------------------------------|
----------------------------------|----------------------------------|
----------------------------------|----------------------------------|

[ Tab from: http://www.guitartabs.cc/tabs/h/helloween/where_the_rain_grows_btab_ver_2.html ]
                                                                      
--7-7-7-7-7-7-7-7-7-7-7-7-4-4-4-4-|--9-9-9-9-9-9-9-9-9-9-9-9-9-9-9-9-|
----------------------------------|----------------------------------|
----------------------------------|----------------------------------|
----------------------------------|----------------------------------|


                                                                              
--------------------------7-7-7-7-7-7-7-7-|--9-9-9-9-9-9-9-9-9-9-9-9-9-9-9-9-|
--10-10-10-10-10-10-10-10-----------------|----------------------------------|
------------------------------------------|----------------------------------|
------------------------------------------|----------------------------------|


                                                                               
--7-7-7-7-7-7-7-7-7--------|--9----------9------9-9-9-9-|--7--------5---------|
---------------------------|----------------------------|----------------5----|
---------------------------|-----7-7-7-7----------------|---------------------|
---------------------------|----------------------------|---------------------|


                                                                                
--9----------9------9-9-9-9-|--7--------5---------|--9----------9------9-9-9-9-|
----------------------------|----------------5----|----------------------------|
-----7-7-7-7----------------|---------------------|-----7-7-7-7----------------|
----------------------------|---------------------|----------------------------|


                                                                         
--7--------5---------|--9----------9------9-9-9-9-|--7--------5---------|
----------------5----|----------------------------|----------------5----|
---------------------|-----7-7-7-7----------------|---------------------|
---------------------|----------------------------|---------------------|


                                                                            
--7-7-7-7-7-7-7-7-7-7-7-7-7-9-11-12-|--9-9-9-9-9-9-9-9-9-9-9-9-12-12-12-12-|
------------------------------------|--------------------------------------|
------------------------------------|--------------------------------------|
------------------------------------|--------------------------------------|


                                                  
-------------------------------------------------|
--12-12-12-12-12-12-12-12-12-12-12-12-12-12-12-9-|
-------------------------------------------------|
-------------------------------------------------|


                                                                              
--12-12-12-12-11-11-11-11-9-9-9-9---------|--7-7-7-7-7-7-7-7-7-7-7-7-7-7-7-4-|
----------------------------------9-9-9-9-|----------------------------------|
------------------------------------------|----------------------------------|
------------------------------------------|----------------------------------|


                                                                              
--12-12-12-12-11-11-11-11-9-9-9-9---------|--7-7-7-7-7-7-7-7-7-7-7-7-7-7-7-4-|
----------------------------------9-9-9-9-|----------------------------------|
------------------------------------------|----------------------------------|
------------------------------------------|----------------------------------|


                                                                              
--12-12-12-12-11-11-11-11-9-9-9-9---------|--9-9-9-9-9-9-9-9-9-9-9-9-9-9-9-9-|
----------------------------------9-9-9-9-|----------------------------------|
------------------------------------------|----------------------------------|
------------------------------------------|----------------------------------|


                                                                      
--7-7-7-7-7-7-7-7-7-7-7-7-7-7-7-7-|--0-0-0-0-0-0-0-0-0-0-0-0-0-0-0-0-|
----------------------------------|----------------------------------|
----------------------------------|----------------------------------|
----------------------------------|----------------------------------|


                                                                      
--5-5-5-5-5-5-5-5-7-7-7-7-7-7-7-7-|--9-9-9-9-9-9-9-9-9-9-9-9-9-9-9-9-|
----------------------------------|----------------------------------|
----------------------------------|----------------------------------|
----------------------------------|----------------------------------|


                                                                      
--7-7-7-7-7-7-7-7-7-7-7-7-7-7-7-7-|--0-0-0-0-0-0-0-0-0-0-0-0-0-0-0-0-|
----------------------------------|----------------------------------|
----------------------------------|----------------------------------|
----------------------------------|----------------------------------|


                                                        
--5--------7--------|--4-4-4-4-4-4-4-4-4-4-4-4-4-4-4-4-|
--------------------|----------------------------------|
--------------------|----------------------------------|
--------------------|----------------------------------|


                                                                      
--0-0-0-0-0-0-0-0-2-2-2-2-2-2-2-2-|--4-4-4-4-4-4-4-4-4-4-4-4-4-4-4-4-|
----------------------------------|----------------------------------|
----------------------------------|----------------------------------|
----------------------------------|----------------------------------|


                                                                      
--0-0-0-0-0-0-0-0-7-7-7-7-7-7-7-7-|--4-4-4-4-4-4-4-4-4-4-4-4-4-4-4-4-|
----------------------------------|----------------------------------|
----------------------------------|----------------------------------|
----------------------------------|----------------------------------|


                                                                      
--0-0-0-0-0-0-0-0-2-2-2-2-2-2-2-2-|--4-4-4-4-4-4-4-4-4-4-4-4-4-4-4-4-|
----------------------------------|----------------------------------|
----------------------------------|----------------------------------|
----------------------------------|----------------------------------|


                                                                      
--0-0-0-0-0-0-0-0-7-7-7-7-7-7-7-7-|--9-9-9-9-9-9-9-9-9-9-9-9-9-9-9-9-|
----------------------------------|----------------------------------|
----------------------------------|----------------------------------|
----------------------------------|----------------------------------|


                                                                      
--7-7-7-7-7-7-7-7-7-7-7-7-7-7-7-7-|--0-0-0-0-0-0-0-0-0-0-0-0-0-0-0-0-|
----------------------------------|----------------------------------|
----------------------------------|----------------------------------|
----------------------------------|----------------------------------|


                                                                      
--7-7-7-7-7-7-7-7-7-7-7-7-7-7-7-7-|----------------------------------|
----------------------------------|----------------------------------|
----------------------------------|--7-7-7-7-7-7-7-7-7-7-7-7-7-7-7-7-|
----------------------------------|----------------------------------|


                                                                      
--4-4-4-4-4-4-4-4-4-4-4-4-4-4-4-4-|--5-5-5-5-5-5-5-5-5-5-5-5-5-5-5-5-|
----------------------------------|----------------------------------|
----------------------------------|----------------------------------|
----------------------------------|----------------------------------|


                                                                      
--7-7-7-7-7-7-7-7-7-7-7-7-7-7-7-7-|--0-0-0-0-0-0-0-0-0-0-0-0-0-0-0-0-|
----------------------------------|----------------------------------|
----------------------------------|----------------------------------|
----------------------------------|----------------------------------|


                                                                      
--7-7-7-7-7-7-7-7-7-7-7-7-4-4-4-4-|--9-9-9-9-9-9-9-9-9-9-9-9-9-9-9-9-|
----------------------------------|----------------------------------|
----------------------------------|----------------------------------|
----------------------------------|----------------------------------|


                                                                      
--------------------------7-7-7-7-|--0-0-0-0-0-0-0-0-0-0-0-0-0-0-0-0-|
--9-9-9-9-9-9-9-9-9-9-9-9---------|----------------------------------|
----------------------------------|----------------------------------|
----------------------------------|----------------------------------|


                                                                      
--7-7-7-7-7-7-7-7-7-7-7-7-4-4-4-4-|--9-9-9-9-9-9-9-9-9-9-9-9-9-9-9-9-|
----------------------------------|----------------------------------|
----------------------------------|----------------------------------|
----------------------------------|----------------------------------|


                                           
--------------------------7-7-7-7-7-7-7-7-|
--10-10-10-10-10-10-10-10-----------------|
------------------------------------------|
------------------------------------------|


                                       
--9-9-9-9-9-9-9-9-9-9-9-9-12-12-11----|
-----------------------------------12-|
--------------------------------------|
--------------------------------------|


                                           
--------------------------7-7-7-7-7-7-7-7-|
--10-10-10-10-10-10-10-10-----------------|
------------------------------------------|
------------------------------------------|


                                       
--9-9-9-9-9-9-9-9-9-9-9-9-12-12-11----|
-----------------------------------12-|
--------------------------------------|
--------------------------------------|


                                           
--------------------------7-7-7-7-7-7-7-7-|
--10-10-10-10-10-10-10-10-----------------|
------------------------------------------|
------------------------------------------|


                                       
--9-9-9-9-9-9-9-9-9-9-9-9-12-12-11----|
-----------------------------------12-|
--------------------------------------|
--------------------------------------|


                                           
--------------------------7-7-7-7-7-7-7-7-|
--10-10-10-10-10-10-10-10-----------------|
------------------------------------------|
------------------------------------------|


                                       
--9-9-9-9-9-9-9-9-9-9-9-9-12-12-11----|
-----------------------------------12-|
--------------------------------------|
--------------------------------------|


                                                                
--------------------------7-7-7-7-7-7-7-7-|--9-----------------|
--10-10-10-10-10-10-10-10-----------------|--------------------|
------------------------------------------|---------------7----|
------------------------------------------|--------------------|


                                                                                
-------0-------------|--7-----------------|--0-0-2-2-4-4-7-7-4-2-2-4-7-7-14-14-|
---------------------|--------------------|------------------------------------|
--9---------9--------|-----------7--------|------------------------------------|
---------------------|--------------------|------------------------------------|


                                                                                
--14-14-12-12-9-9-7-7-4-4-2-2-0-2-0---|---------------------|------------------|
------------------------------------2-|--2----2----2--------|------------------|
--------------------------------------|---------------------|------------------|
--------------------------------------|---------------------|------------------|


                                                             
------------------|----------------------|------------------|
------------------|----------2--2-2-2----|------------------|
------------------|----------------------|------------------|
------------------|----------------------|------------------|


                    
------------------||
------------------||
------------------||
------------------||
Comments