Helloween - Warrior Chords & Tabs

 

Warrior Chords & Tabs

Helloween Chords & Tabs

Version: 1 Type: Tab 0 ratings
1 star 2 stars 3 stars 4 stars 5 stars
comments

Warrior Tab

   
#----------------------------------PLEASE NOTE---------------------------------#
#This file is the author's own work and represents their interpretation of the #
#song. You may only use this file for private study, scholarship, or research. #
#------------------------------------------------------------------------------#
#
Date: Sat, 20 Jan 1996 16:30:59 +0100
From: g9404781@student.anu.edu.au (SJG)
Subject: warrior.tab (warrior by helloween)
Warrior
by Helloween
>From Judas mini-LP
Transcribed by Stefan Gabriel
(g9404781@student.anu.edu.au)
Arranged and written by Helloween (1985)
Key
~ - vibrato
  Tempo : fast (one crotchet = 180).
Riff A
|e|-------------------------------|-------------------------------|
|B|-------------------------------|-------------------------------|
|G|-------------------------------|-------------------------------|
|D|-9--------------------------7--|-9-----------------------------|
|A|-7--------------------------5--|-7-----------------------------|
|E|----0-0--0--0-0--0--0-0--0-----|----0-0--0--0-0--0--0-0--0--0--|
       P.M...................]        P.M......................]
  |------------------------|--------------------------||
  |------------------------|--------------------------||
  |------------------------|--------------------------||
  |----------5-----------7-|--------------------------||
  |-3-3-3-3--3--5-5-5-5--5-|-10-10-9-9-7-7-5-5--7~----||
  |------------------------|-----------------------7~-||
    P.M...]     P.M...]

Fill 1 (each note represents 2 quavers  e.g 12 means -12-12- etc)
|------------------------|---------------|
|-*12-12-12-12-12-10-8-7-|-8-10-8-7------|
|------------------------|----------9~---|
|------------------------|------------9~-|
|------------------------|---------------|
|------------------------|---------------|
  |-------------------|----------------|
  |-----------------7-|-8-7------------|
  |-------7-9-7-7-9---|-----9-7--9~----|
  |-10-10-------------|-------------9~-|
  |-------------------|----------------|
  |-------------------|----------------|
  |------------------------|---------------|
  |-*12-12-12-12-12-10-8-7-|-8-10-8-7------|
  |------------------------|----------9~---|
  |------------------------|------------9~-|
  |------------------------|---------------|
  |------------------------|---------------|
  |                        |               |
  |-*10-10-10-10-10--8-7-5-|-7--8-7-5------|
  |------------------------|----------8~---|
  |------------------------|------------7~-|
  |------------------------|---------------|
  |------------------------|---------------|
  |------------------------|---------------|
  |-------------------|--------------||
  |-----------------7-|-8-7----------||
  |-------7-9-7-7-9---|-----9-7--9~--||
  |-10-10-------------|--------------||
  |-------------------|--------------||
  |-------------------|--------------||
  |                   |              ||
  |-----------------5-|-7-5----------||
  |--5--5-7-8-7-7-8---|-----8-7--8~--||
  |-------------------|--------------||
  |-------------------|--------------||
  |-------------------|--------------||
  |-------------------|--------------||

Riff B (2nd time play notes in parentheses.)
|----------------------------------|---------------------------------|
|----------------------------------|---------------------------------|
|----------------------------------|---------------------------------|
|----------------------------------|---------------------------------|
|-4--------------------------------|-4-------------------------------|
|-2--2-2--2--2-2--2--2-2--2--2-(0)-|-2--2-2--2--2-2--2--2-2--2--2-(0)|
     P.M.........................]      P.M.........................]
  |-------------------------|------------------------------||
  |-------------------------|------------------------------||
  |-------------------------|------------------------------||
  |----------7-----------9--|------------------------------||
  |-5-5-5-5--5--7-7-7-7--7--|-4----------------------------||
  |-------------------------|-2--2-2--2--2-2--2--2-2--2--0-||
    P.M...]     P.M...]         P.M......................]

Riff C
        Half time feel: Play 3X
|------------|---------------|  |--------------------------------|----||
|------------|---------------|  |--------------------------------|----||
|------------|---------------|  |--------------------------------|----||
|----------7-|---------------|  |-6-------6-------6-------6------|--6-||
|-5-5-5-5--5-|----------4----|  |-4--4-4--4--4-4--4--4-4--4--4-4-|--4-||
|------------|-2-2-2-2--2----|  |--------------------------------|----||
 P.M.....]         P.M.....]         P.M.]   P.M.]   P.M.]   P.M.]
[ Tab from: http://www.guitartabs.cc/tabs/h/helloween/warrior_tab.html ]
Riff D
|----------------------------|------------------------------|
|----------------------------|------------------------------|
|----------------------------|------------------------------|
|----------------------------|-2----------------------------|
|-2--4-----------------------|-0--4-------------------------|
|-0--2--2--2-2--2--2-2--2--2-|----2--2--2-2--2--2-2--2--2-2-|
  |----------------------------|-------------|-------|
  |----------------------------|-------------|-------|
  |----------------------------|-------------|-------|
  |----------------------------|-2--2--2--9--|--(9)--|
  |-2--4-----------------------|-0--0--0--7--|--(7)--|
  |-0--2--2--2-2--2--2-2--2--2-|-------------|-------|
  |----------------------------|------------------------------|
  |----------------------------|------------------------------|
  |----------------------------|------------------------------|
  |----------------------------|-2----------------------------|
  |-2--4-----------------------|-0--4-------------------------|
  |-0--2--2--2-2--2--2-2--2--2-|----2--2--2-2--2--2-2--2--2-2-|
  |----------------------------|-------------|-------||
  |----------------------------|-------------|-------||
  |----------------------------|-------------|-------||
  |----------------------------|-6--6--6--6--|--(6)--||
  |-2--4-----------------------|-4--4--4--4--|--(4)--||
  |-0--2--2--2-2--2--2-2--2--2-|-------------|-------||

Riff E (each note here represent crotchet and 2 semiquavers)
        ( e.g 7 = -7--7-7- except for chord)
|----------|----------|----------|----------|
|----------|----------|----------|----------|
|----------|----------|----------|----------|
|----------|-7--------|----------|-7--------|
|-7-7-9-10-|---10-9-5-|-7-7-9-10-|---10--10-|
|----------|----------|----------|-------8--|
  |----------|----------|----------|----------||
  |----------|----------|----------|-----*-*--||
  |----------|----------|----------|-----9-8~-||
  |----------|-7--------|----------|-7--10-9~-||
  |-7-7-9-10-|---10-9-5-|-7-7-9-10-|----------||
  |----------|----------|----------|----------||
        * top notes denote Guitar 2

Riff F
        Play riff 4 times
|--------------------------------|--------------------------------|
|--------------------------------|--------------------------------|
|--------------------------------|--------------------------------|
|-5------------------------------|--------------------------------|
|-3--3-3--3--3-3--3--3-3--3--3-3-|-3--3-3--3--3-3--3--3-3--3--3-3-|
|--------------------------------|--------------------------------|
     P.M.........................................................]
  |--------------------------------|---------------------||
  |--------------------------------|---------------------||
  |--------------------------------|---------------------||
  |-7------------------------------|---------------------||
  |-5--5-5--5--5-5--5--5-5--5--5-5-|-10~--9~--7~--9~--5~-||
  |--------------------------------|---------------------||
      P.M........................]

Riff G
        Play riff 2 times
|------------------------------|---|-------------------------------|---|
|------------------------------|---|-------------------------------|---|
|------------------------------|-%-|-------------------------------|-%-|
|9-----------------------------|---|-------------------------------|---|
|7--7-7--7--7-7--7--7-7--7--7-7|---|3--3-3--3--3-3--3--3-3--3--3-3-|---|
|------------------------------|---|-------------------------------|---|
    P.M..........................................................]
  |--------------------------------|------------------||
  |--------------------------------|------------------||
  |--------------------------------|------------------||
  |--------------------------------|------------------||
  |-5--5-5--5--5-5--5--5-5--5--5-5-|--10--9--10-9-5-7-||
  |--------------------------------|------------------||
    P.M...........................]

Riff H
|--------------------------------|-----||
|--------------------------------|-----||
|--------------------------------|--%--||
|-9------------------------------|-----||
|-7--7-7--7--7-7--7--7-7--7--7-7-|-----||
|--------------------------------|-----||
    P.M........................]

Riff I
|-----------|-----------|-----|-------|-----------||
|-----------|-----------|-----|-------|-----------||
|-----------|-----------|-----|-------|-----------||
|-6-6-6--6--|-4-4-4--4--|--2--|--(2)--|-----------||
|-4-4-4--4--|-2-2-2--2--|--0--|--(0)--|-4-4-2--4--||
|-----------|-----------|-----|-------|-2-2-0--2--||

Will post solo when worked out

        Song Structure
Start - battle noise, Riff A (played twice), no band - only on accented beats
Intro - Fill 1 with Riff A
Verse 1 - Riff B
Verse 2 - Riff C
Intro
Verse 3 - Riff B
Verse 2
Chorus - Riff D
Bridge 1 - Riff E
Solo / with acc. Riff F, Riff G, then Riff D
Bridge 2 - Riff E
Intro
Verse 4 - Riff B
Verse 5 - Riff C
Chorus (twice)
Coda - Riff I


Comments