Helloween - Twilight Of The Gods Chords & Tabs

 

Twilight Of The Gods Chords & Tabs

Helloween Chords & Tabs

Version: 1 Type: Bass Tab 0 ratings
1 star 2 stars 3 stars 4 stars 5 stars
comments

Twilight Of The Gods Bass Tab

its a 4 string bass

E||------------------|----------------------------------|
B||------------------|----------------------------------|
G||------------------|----------------------------------|
D||------------------|----------------------------------|
A||------------------|----------------------------------|
E||------------------|--0-0-0-0-0-0-0-0-0-0-0-0-0-0-0-0-|


                                                                      
----------------------------------|----------------------------------|
----------------------------------|----------------------------------|
----------------------------------|----------------------------------|
----------------------------------|----------------------------------|
--2-2-2-2-2-2-2-2-2-2-2-2-2-2-2-2-|--4-4-4-4-4-4-4-4-4-4-4-4-4-4-4-4-|
----------------------------------|----------------------------------|


                                                                     
----------------------------------|---------------------------------|
----------------------------------|---------------------------------|
----------------------------------|---------------------------------|
----------------------------------|---------------------------------|
----------------------------------|------------------7--------------|
--4-4-4-4-4-4-4-4-4-4-4-4-4-4-4-4-|--0-0-0-0-0-0-0-0----0-0-0-0-0-0-|


                                                                      
----------------------------------|----------------------------------|
----------------------------------|----------------------------------|
----------------------------------|----------------------------------|
----------------------------------|----------------------------------|
--2-2-2-2-2-2-2-2-2-2-2-2-2-2-2-2-|--0-0-0-0-0-0-0-0-0-0-0-0-0-0-0-0-|
----------------------------------|----------------------------------|


                                                           
---------------------------|------------------------------|
---------------------------|------------------------------|
---------------------------|------------------------------|
---------------------------|------------------------------|
---------------------------|------------------------------|
--4--4--4--4--4------------|--2--2-2-2--2-2-2--2-2-2--2-2-|


                                                              
------------------------------|------------------------------|
------------------------------|------------------------------|
------------------------------|------------------------------|
------------------------------|------------------------------|
------------------------------|------------------------------|
--2--2-2-2--2-2-2--2-2-2--2-2-|--0--0-0-0--0-0-0--0-0-0--0-0-|


                                                              
------------------------------|------------------------------|
------------------------------|------------------------------|
------------------------------|------------------------------|
------------------------------|------------------------------|
------------------------------|--3--3-3-3--3-3-3--3-3-3--3-3-|
--0--0-0-0--0-0-0--0-0-0--0-0-|------------------------------|


                                                              
------------------------------|------------------------------|
------------------------------|------------------------------|
------------------------------|------------------------------|
------------------------------|------------------------------|
--3--3-3-3--3-3-3--3-3-3--3-3-|--5--5-5-5--5-5-5--5-5-5--5-5-|
------------------------------|------------------------------|


                                                              
------------------------------|------------------------------|
------------------------------|------------------------------|
------------------------------|------------------------------|
------------------------------|------------------------------|
--5--5-5-5--5-5-5--5-5-5--5-5-|--2--2-2-2--2-2-2--2-2-2--2-2-|
------------------------------|------------------------------|


                                                            
--------------------------|--------------------------------|
--------------------------|--------------------------------|
--------------------------|--------------------------------|
--------------------------|--------------------------------|
--2--3--2--0--2--0--------|--5--5-5-5-5-5-5-5--5-5-5-5-5-5-|
--------------------3--2--|--------------------------------|


                                                              
----------------------------|--------------------------------|
----------------------------|--------------------------------|
----------------------------|--------------------------------|
----------------------------|--------------------------------|
--5--5-5-5-5-5-5-5---5---5--|--------------------------------|
----------------------------|--1--1-1-1-1-1-1-1--1-1-1-1-1-1-|


                                                                  
--------------------------------|--------------------------------|
--------------------------------|--------------------------------|
--------------------------------|--------------------------------|
--------------------------------|--------------------------------|
--3--3-3-3-3-3-3-3--3-3-3-3-3-3-|--5--5-5-5-5-5-5-5--5-5-5-5-5-5-|
--------------------------------|--------------------------------|


                                                          
----------------------------|----------------------------|
----------------------------|----------------------------|
----------------------------|----------------------------|
----------------------------|----------------------------|
--5--5-5-5-5-5-5-5---3---0--|-------------------------0--|
----------------------------|--1--1-1-1-1-1-1-1---3------|


                                                               
-----------------------------|--------------------------------|
-----------------------------|--------------------------------|
-----------------------------|--------------------------------|
-----------------------------|--------------------------------|
--3--3-3-3-3-3-3-3--2--3--4--|--5--5-5-5-5-5-5-5--5-5-5-5-5-5-|
-----------------------------|--------------------------------|


                                                          
----------------------------|----------------------------|
----------------------------|----------------------------|
----------------------------|----------------------------|
----------------------------|----------------------------|
--5--5-5-5-5-5-5-5---5---5--|----------------------------|
----------------------------|--1--1-1-1-1-1-1-1---1---1--|


                                                                  
--------------------------------|--------------------------------|
--------------------------------|--------------------------------|
--------------------------------|--------------------------------|
--------------------------------|--------------------------------|
--3--3-3-3-3-3-3-3--3-3-3-3-3-3-|--1--1-1-1-1-1-1-1--1-1-1-1-1-1-|
--------------------------------|--------------------------------|


                                                          
------------------------|--------------------------------|
------------------------|--------------------------------|
------------------------|--------------------------------|
------------------------|--------------------------------|
--1---3---5--5---3---1--|--0--0-0-0-0-0-0-0--0-0-0-0-0-0-|
------------------------|--------------------------------|


                                                                                
--------------------------|--------------------------|-------------------------|
--------------------------|--------------------------|-------------------------|
--------------------------|--------------------------|-------------------------|
--------------------------|--------------------------|--5--5--4--2-------------|
--0--0--0--0--0--0--0--0--|--2--2--2--2--2--2--2--2--|--------------5----2--0--|
--------------------------|--------------------------|-------------------------|


                                                                                
--------------------------|-------------------------|--------------------------|
--------------------------|-------------------------|--------------------------|
--------------------------|-------------------------|--------------------------|
--------------------------|--5--5--4--2--0----------|--------------------------|
--------------------------|-------------------2--0--|--0--0--0--0--0--0--0--0--|
--3--3--3--3--3--3--3--3--|-------------------------|--------------------------|


                                                                            
-----------------------|--------------------------|------------------------|
-----------------------|--------------------------|------------------------|
-----------------------|--------------------------|------------------------|
--7--7--5--------------|--------------------------|------------------------|
-------------7----4----|--2--2--2--2--2--2--2--2--|--2---------------------|
-----------------------|--------------------------|-----5--5----3----5--3--|


                                                                         
--------------------------|-------------------------|-------------------|
--------------------------|-------------------------|-------------------|
--------------------------|-------------------------|-------------------|
--------------------------|--5--5--4--2-------------|-------------------|
--2--2--2--2--2--2--2--2--|--------------5----2--0--|-------------------|
--------------------------|-------------------------|--3----------------|


                                                  
------------------|------------------------------|
------------------|------------------------------|
------------------|------------------------------|
------------------|------------------------------|
------------------|------------------------------|
------------------|--2--2-2-2--2-2-2--2-2-2--2-2-|


                                                              
------------------------------|------------------------------|
------------------------------|------------------------------|
------------------------------|------------------------------|
------------------------------|------------------------------|
------------------------------|------------------------------|
--2--2-2-2--2-2-2--2-2-2--2-2-|--0--0-0-0--0-0-0--0-0-0--0-0-|


                                                              
------------------------------|------------------------------|
------------------------------|------------------------------|
------------------------------|------------------------------|
------------------------------|------------------------------|
------------------------------|--3--3-3-3--3-3-3--3-3-3--3-3-|
--0--0-0-0--0-0-0--0-0-0--0-0-|------------------------------|


                                                              
------------------------------|------------------------------|
------------------------------|------------------------------|
------------------------------|------------------------------|
------------------------------|------------------------------|
--3--3-3-3--3-3-3--3-3-3--3-3-|--5--5-5-5--5-5-5--5-5-5--5-5-|
------------------------------|------------------------------|


                                                              
------------------------------|------------------------------|
------------------------------|------------------------------|
------------------------------|------------------------------|
------------------------------|------------------------------|
--5--5-5-5--5-5-5--5-5-5--5-5-|--2--2-2-2--2-2-2--2-2-2--2-2-|
------------------------------|------------------------------|


                                                            
--------------------------|--------------------------------|
--------------------------|--------------------------------|
--------------------------|--------------------------------|
--------------------------|--------------------------------|
--2--3--2--0--2--0--------|--5--5-5-5-5-5-5-5--5-5-5-5-5-5-|
--------------------3--2--|--------------------------------|


                                                              
----------------------------|--------------------------------|
----------------------------|--------------------------------|
----------------------------|--------------------------------|
----------------------------|--------------------------------|
--5--5-5-5-5-5-5-5---5---5--|--------------------------------|
----------------------------|--1--1-1-1-1-1-1-1--1-1-1-1-1-1-|


                                                                  
--------------------------------|--------------------------------|
--------------------------------|--------------------------------|
--------------------------------|--------------------------------|
--------------------------------|--------------------------------|
--3--3-3-3-3-3-3-3--3-3-3-3-3-3-|--5--5-5-5-5-5-5-5--5-5-5-5-5-5-|
--------------------------------|--------------------------------|


                                                          
----------------------------|----------------------------|
----------------------------|----------------------------|
----------------------------|----------------------------|
----------------------------|----------------------------|
--5--5-5-5-5-5-5-5---3---0--|-------------------------0--|
----------------------------|--1--1-1-1-1-1-1-1---3------|


                                                               
-----------------------------|--------------------------------|
-----------------------------|--------------------------------|
-----------------------------|--------------------------------|
-----------------------------|--------------------------------|
--3--3-3-3-3-3-3-3--2--3--4--|--5--5-5-5-5-5-5-5--5-5-5-5-5-5-|
-----------------------------|--------------------------------|


                                                          
----------------------------|----------------------------|
----------------------------|----------------------------|
----------------------------|----------------------------|
----------------------------|----------------------------|
--5--5-5-5-5-5-5-5---5---5--|----------------------------|
----------------------------|--1--1-1-1-1-1-1-1---1---1--|

[ Tab from: http://www.guitartabs.cc/tabs/h/helloween/twilight_of_the_gods_btab.html ]
                                                                  
--------------------------------|--------------------------------|
--------------------------------|--------------------------------|
--------------------------------|--------------------------------|
--------------------------------|--------------------------------|
--3--3-3-3-3-3-3-3--3-3-3-3-3-3-|--1--1-1-1-1-1-1-1--1-1-1-1-1-1-|
--------------------------------|--------------------------------|


                                                          
------------------------|--------------------------------|
------------------------|--------------------------------|
------------------------|--------------------------------|
------------------------|--------------------------------|
--1---3---5--5---3---1--|--0--0-0-0-0-0-0-0--0-0-0-0-0-0-|
------------------------|--------------------------------|


                                                                                
--------------------------|--------------------------|-------------------------|
--------------------------|--------------------------|-------------------------|
--------------------------|--------------------------|-------------------------|
--------------------------|--------------------------|--5--5--4--2-------------|
--0--0--0--0--0--0--0--0--|--2--2--2--2--2--2--2--2--|--------------5----2--0--|
--------------------------|--------------------------|-------------------------|


                                                                                
--------------------------|-------------------------|--------------------------|
--------------------------|-------------------------|--------------------------|
--------------------------|-------------------------|--------------------------|
--------------------------|--5--5--4--2-------------|--------------------------|
--------------------------|--------------5----2--0--|--0--0--0--0--0--0--0--0--|
--3--3--3--3--3--3--3--3--|-------------------------|--------------------------|


                                                                            
-----------------------|--------------------------|------------------------|
-----------------------|--------------------------|------------------------|
-----------------------|--------------------------|------------------------|
--7--7--5--------------|--------------------------|------------------------|
-------------7----4----|--2--2--2--2--2--2--2--2--|--2---------------------|
-----------------------|--------------------------|-----5--5----3----5--3--|


                                                                          
--------------------------|--------------------------|-------------------|
--------------------------|--------------------------|-------------------|
--------------------------|--------------------------|-------------------|
--------------------------|--------------------------|-------------------|
--2--2--2--2--2--2--2--2--|--2--2--2--2--2--2--2--2--|-------------------|
--------------------------|--------------------------|--3----------------|


                                                                         
------------------|--------------------------|--------------------------|
------------------|--------------------------|--------------------------|
------------------|--------------------------|--------------------------|
------------------|--------------------------|-----------------4--4--5--|
------------------|--5--5--5--5--5--5--5--5--|--5--5--5--5--5-----------|
------------------|--------------------------|--------------------------|


                                                      
--------------------------|--------------------------|
--------------------------|--------------------------|
--------------------------|-----------------4--------|
--7--7--7--7--7--7--7--7--|--7--7--7--7--7-----7--4--|
--------------------------|--------------------------|
--------------------------|--------------------------|


                                                      
--------------------------|--------------------------|
--------------------------|--------------------------|
--------------------------|--------------------------|
--------------------------|--------------------------|
--2--2--2--2--2--2--2--2--|--2--2--2--2--2--2--2--2--|
--------------------------|--------------------------|


                                                      
--------------------------|--------------------------|
--------------------------|--------------------------|
--------------------------|--------------------------|
--------------------------|--------------------2--4--|
--------------------------|-----------2--4--5--------|
--2--2--2--2--2--2--2--2--|--2--3--5-----------------|


                                                      
--------------------------|--------------------------|
--------------------------|--------------------------|
--------------------------|--------------------------|
--------------------------|--------------------------|
--5--5--5--5--5--5--5--5--|--5--5--5--5--5--5--5--5--|
--------------------------|--------------------------|


                                                      
--------------------------|--------------------------|
--------------------------|--------------------------|
--------------------------|--------------------------|
--------------------------|--------------------------|
--0--0--0--0--0--0--0--0--|--0--0--0--0--0--0--0--0--|
--------------------------|--------------------------|


                                                                          
--------------------------|-------------------|--------------------------|
--------------------------|-------------------|--------------------------|
--------------------------|-------------------|--------------------------|
--------------------------|-------------------|--------------------------|
--------------------------|-------------------|--7--7--7--7--7--7--7--7--|
--3--3--3--3--3--3--3--3--|--2----------------|--------------------------|


                                                                              
-------------------------|--------------------------|------------------------|
-------------------------|--------------------------|------------------------|
-----------4----4--------|--------------------------|------------------------|
--4--5--7----------7--5--|--------------------------|-----2--3--5----5----7--|
-------------------------|--3--3--3--3--3--3--3--2--|--3---------------------|
-------------------------|--------------------------|------------------------|


                                                      
--------------------------|--------------------------|
--------------------------|--------------------------|
--------------------------|--------------9--------7--|
--------------------------|-----5--7--8-----9--7-----|
--------------------------|--7-----------------------|
--0--0--0--0--0--0--0--0--|--------------------------|


                                                     
--------------------------|-------------------------|
--------------------------|-------------------------|
--------------------------|-------------------------|
--------------------------|-------------------------|
--3--3--3--3--3--3--3--3--|--5---5---5--5---5--5-5--|
--------------------------|-------------------------|


                                                                
----------------------------|----------------------------------|
----------------------------|----------------------------------|
----------------------------|----------------------------------|
----------------------------|----------------------------------|
--5--5--5--5--5--5--5-5-5-5-|----------------------------------|
----------------------------|--0-0-0-0-0-0-0-0-0-0-0-0-0-0-0-0-|


                                                                      
----------------------------------|----------------------------------|
----------------------------------|----------------------------------|
----------------------------------|----------------------------------|
----------------------------------|----------------------------------|
--2-2-2-2-2-2-2-2-2-2-2-2-2-2-2-2-|--5-5-5-5-5-5-5-5-5-5-5-5-5-5-5-5-|
----------------------------------|----------------------------------|


                                                                     
------------------|------------------------|------------------------|
------------------|------------------------|------------------------|
------------------|--4-------4-------------|--4-------4-------------|
------------------|------------------------|------------------------|
--7-7-7-7-7-7-7-7-|------2-------2---3--3--|------2-------2---3--3--|
------------------|------------------------|------------------------|


                                                                      
----------------------------------|----------------------------------|
----------------------------------|----------------------------------|
----------------------------------|----------------------------------|
----------------------------------|----------------------------------|
--7-7-7-7-7-7-7-7-7-7-7-7-7-7-7-7-|--2-2-2-2-2-2-2-2-2-2-2-2-2-2-2-2-|
----------------------------------|----------------------------------|


                                                                               
----------------------------------|------------------|------------------------|
----------------------------------|------------------|------------------------|
----------------------------------|------------------|--4-------4-------------|
----------------------------------|------------------|------------------------|
--5-5-5-5-5-5-5-5-5-5-5-5-5-5-5-5-|--7-7-7-7-7-7-7-7-|------2-------2---3--3--|
----------------------------------|------------------|------------------------|


                                                            
------------------------|----------------------------------|
------------------------|----------------------------------|
--4-------4-------------|----------------------------------|
------------------------|----------------------------------|
------2-------2---3--3--|--7-7-7-7-7-7-7-7-5-5-5-5-5-5-5-5-|
------------------------|----------------------------------|


                                                                      
----------------------------------|----------------------------------|
----------------------------------|----------------------------------|
----------------------------------|----------------------------------|
----------------------------------|----------------------------------|
--3-3-3-3-3-3-3-3-2-2-2-2-2-2-2-2-|--7-7-7-7-7-7-7-7-5-5-5-5-5-5-5-5-|
----------------------------------|----------------------------------|


                                                           
-----------------------|----------------------------------|
-----------------------|----------------------------------|
-----------------------|----------------------------------|
-----------------------|----------------------------------|
--3--2-----------------|--7-7-7-7-7-7-7-7-5-5-5-5-5-5-5-5-|
--------3--2--0--------|----------------------------------|


                                                                      
----------------------------------|----------------------------------|
----------------------------------|----------------------------------|
----------------------------------|----------------------------------|
----------------------------------|----------------------------------|
--3-3-3-3-3-3-3-3-2-2-2-2-2-2-2-2-|--7-7-7-7-7-7-7-7-5-5-5-5-5-5-5-5-|
----------------------------------|----------------------------------|


                                                           
-----------------------|----------------------------------|
-----------------------|----------------------------------|
-----------------------|----------------------------------|
-----------------------|----------------------------------|
--3--2-----------------|--0-0-0-0-0-0-0-0-0-0-0-0-0-0-0-0-|
--------3--2--0--------|----------------------------------|


                                                                      
----------------------------------|----------------------------------|
----------------------------------|----------------------------------|
----------------------------------|----------------------------------|
----------------------------------|----------------------------------|
--0-0-0-0-0-0-0-0-0-0-0-0-0-0-0-0-|--7-7-7-7-7-7-7-7-7-7-7-7-7-7-7-7-|
----------------------------------|----------------------------------|


                                                                   
-------------------------------|----------------------------------|
-------------------------------|----------------------------------|
-------------------------------|----------------------------------|
-------------------------------|----------------------------------|
--7-7-7-7-7-7-7-7-7-7-7-7-7----|--0-0-0-0-0-0-0-0-0-0-0-0-0-0-0-0-|
-------------------------------|----------------------------------|


                                                                      
----------------------------------|----------------------------------|
----------------------------------|----------------------------------|
----------------------------------|----------------------------------|
----------------------------------|----------------------------------|
--7-7-7-7-7-7-7-7-7-7-7-7-7-7-7-7-|--0-0-0-0-0-0-0-0-0-0-0-0-0-0-0-0-|
----------------------------------|----------------------------------|


                                                       
----------------------------------|-------------------|
----------------------------------|-------------------|
----------------------------------|-------------------|
----------------------------------|-------------------|
--7-7-7-7-7-7-7-7-7-7-7-7-7-7-7-7-|--2----------------|
----------------------------------|-------------------|


                                                                                
--------------------------|-------------------------|--------------------------|
--------------------------|-------------------------|--------------------------|
--------------------------|-------------------------|--------------------------|
--------------------------|--5--5--4--2-------------|--------------------------|
--2--2--2--2--2--2--2--2--|--------------5----2--0--|--------------------------|
--------------------------|-------------------------|--3--3--3--3--3--3--3--3--|


                                                                             
-------------------------|--------------------------|-----------------------|
-------------------------|--------------------------|-----------------------|
-------------------------|--------------------------|-----------------------|
--5--5--4--2-------------|--------------------------|--7--7--5--------------|
--------------5----2--0--|--0--0--0--0--0--0--0--0--|-------------7----4----|
-------------------------|--------------------------|-----------------------|
Comments