Helloween - The Departed Chords & Tabs

 

The Departed Chords & Tabs

Helloween Chords & Tabs

Version: 1 Type: Bass Tab 0 ratings
1 star 2 stars 3 stars 4 stars 5 stars
comments

The Departed Bass Tab

tune down

G||------------------|------------------|------------------|------------------|
D||------------------|------------------|------------------|------------------|
A||------------------|------------------|------------------|------------------|
E||------------------|------------------|------------------|------------------|
B||------------------|------------------|------------------|------------------|


                                                      
--------------------------|--------------------------|
--------------------------|--------------------------|
--------------------------|--------------------------|
--3--3--3--3--3--3--3--3--|--3--3--3--3--3--3--3--3--|
--------------------------|--------------------------|


                                                       
--------------------------|---------------------------|
--------------------------|-----------------------3h5-|
--------------------------|---------------------------|
--3--3--3--3--3--3--3--3--|--3--3--3--3--3--3--3------|
--------------------------|---------------------------|


                                                       
--------------------------|---------------------------|
--------------------------|-----------------------3h5-|
--------------------------|---------------------------|
--3--3--3--3--3--3--3--3--|--3--3--3--3--3--3--3------|
--------------------------|---------------------------|


                                                       
--------------------------|---------------------------|
--------------------------|-----------------------3h5-|
--------------------------|---------------------------|
--3--3--3--3--3--3--3--3--|--3--3--3--3--3--3--3------|
--------------------------|---------------------------|


                                                       
--------------------------|---------------------------|
--------------------------|-----------------------3h5-|
--------------------------|---------------------------|
--3--3--3--3--3--3--3--3--|--3--3--3--3--3--3--3------|
--------------------------|---------------------------|


                                                       
--------------------------|---------------------------|
--------------------------|-----------------------3h5-|
--------------------------|---------------------------|
--3--3--3--3--3--3--3--3--|--3--3--3--3--3--3--3------|
--------------------------|---------------------------|


                                                      
--------------------------|--------------------------|
--------------------------|--------------------------|
--------------------------|--------------------------|
--3--3--3--3--3--3--3--3--|--3--3--3--3--3--3--3--3--|
--------------------------|--------------------------|


                                                       
--------------------------|---------------------------|
--------------------------|-----------------------3h5-|
--------------------------|---------------------------|
--3--3--3--3--3--3--3--3--|--3--3--3--3--3--3--3------|
--------------------------|---------------------------|


                                                      
--------------------------|--------------------------|
--------------------------|--------------------------|
--------------------------|--------------------------|
--3--3--3--3--3--3--3--3--|--3--3--3--3--3--3--3--3--|
--------------------------|--------------------------|


                                                       
--------------------------|---------------------------|
--------------------------|-----------------------3h5-|
--------------------------|---------------------------|
--3--3--3--3--3--3--3--3--|--3--3--3--3--3--3--3------|
--------------------------|---------------------------|


                                                       
--------------------------|---------------------------|
--------------------------|-----------------------3h5-|
--------------------------|---------------------------|
--3--3--3--3--3--3--3--3--|--3--3--3--3--3--3--3------|
--------------------------|---------------------------|


                                                      
--------------------------|--------------------------|
--------------------------|--------------------------|
--------------------------|--------------------------|
--1--1--1--1--1--1--1--1--|--0--0--0--0--1--1--1--1--|
--------------------------|--------------------------|


                                                           
----------------------------|-----------------------------|
----------------------------|-----------------------------|
--------1----------1--------|--------1----------1---------|
--3--3----3--3-1-3---3---3--|--3--3----3--3-1-3---3---3-3-|
----------------------------|-----------------------------|


                                                                             
--------------------------|--------------3----5----|------------------------|
--------------------------|------------------------|--2-2-2-2-2----2--------|
--------------------------|------------------------|------------------------|
--1--1--1--1--1--1--1--1--|--1--1--1--1------------|------------------------|
--------------------------|------------------------|------------------------|


                                                                             
------------------------|------------------------|--------------------------|
--0-0-0-0-0----0--------|------------------------|--------------------------|
------------------------|--3-3-3-3-3----3--------|--0--0--0--0--2--2--2--2--|
------------------------|------------------------|--------------------------|
------------------------|------------------------|--------------------------|


                                                                           
------------------------|------------------------|------------------------|
--2-2-2-2-2----2--------|--0-0-0-0-0----0--------|------------------------|
------------------------|------------------------|--3-3-3-3-3----3--------|
------------------------|------------------------|------------------------|
------------------------|------------------------|------------------------|


                                                      
--------------------------|--------------------------|
--------------------------|--------------------------|
--0--0--0--0--2--2--2--2--|--------------------------|
--------------------------|--3--3--3--3--3--3--3--3--|
--------------------------|--------------------------|


                                                       
---------------------------|--------------------------|
-----------------------3h5-|--------------------------|
---------------------------|--------------------------|
--3--3--3--3--3--3--3------|--3--3--3--3--3--3--3--3--|
---------------------------|--------------------------|


                                                      
--------------------------|--------------------------|
--------------------------|--------------------------|
--------------------------|--------------------------|
--3--3--3--3--3--3--3--3--|--3--3--3--3--3--3--3--3--|
--------------------------|--------------------------|


                                                       
---------------------------|--------------------------|
-----------------------3h5-|--------------------------|
---------------------------|--------------------------|
--3--3--3--3--3--3--3------|--3--3--3--3--3--3--3--3--|
---------------------------|--------------------------|


                                                      
--------------------------|--------------------------|
--------------------------|--------------------------|
--------------------------|--------------------------|
--3--3--3--3--3--3--3--3--|--3--3--3--3--3--3--3--3--|
--------------------------|--------------------------|

[ Tab from: http://www.guitartabs.cc/tabs/h/helloween/the_departed_btab.html ]
                                                         
---------------------------|----------------------------|
-----------------------3h5-|----------------------------|
---------------------------|--------1----------1--------|
--3--3--3--3--3--3--3------|--3--3----3--3-1-3---3---3--|
---------------------------|----------------------------|


                                                         
-----------------------------|--------------------------|
-----------------------------|--------------------------|
--------1----------1---------|--------------------------|
--3--3----3--3-1-3---3---3-3-|--1--1--1--1--1--1--1--1--|
-----------------------------|--------------------------|


                                                                           
--------------3----5----|------------------------|------------------------|
------------------------|--2-2-2-2-2----2--------|--0-0-0-0-0----0--------|
------------------------|------------------------|------------------------|
--1--1--1--1------------|------------------------|------------------------|
------------------------|------------------------|------------------------|


                                                                             
------------------------|--------------------------|------------------------|
------------------------|--------------------------|--2-2-2-2-2----2--------|
--3-3-3-3-3----3--------|--0--0--0--0--2--2--2--2--|------------------------|
------------------------|--------------------------|------------------------|
------------------------|--------------------------|------------------------|


                                                                             
------------------------|------------------------|--------------------------|
--0-0-0-0-0----0--------|------------------------|--------------------------|
------------------------|--3-3-3-3-3----3--------|--0--0--0--0--2--2--2--2--|
------------------------|------------------------|--------------------------|
------------------------|------------------------|--------------------------|


                                                      
--------------------------|--------------------------|
--------------------------|--------------------------|
--4--4--4--4--4--4--4--4--|--2--2--2--2--2--2--2--2--|
--------------------------|--------------------------|
--------------------------|--------------------------|


                                                                          
--------------------------|--------------------------|-------------------|
--------------------------|--------------------------|--2----------------|
--0--0--0--0--0--0--0--0--|--------------------------|-------------------|
--------------------------|--2--2--2--2--4--4--4--4--|-------------------|
--------------------------|--------------------------|-------------------|


                                                                             
--------------------|---------------------------|---------------------------|
----------------0h2-|-----------------------0h2-|-----------------------0h2-|
--------------------|---------------------------|---------------------------|
--------------------|--0--0--0--0--0--0--0------|--0--0--0--0--0--0--0------|
--------------------|---------------------------|---------------------------|


                                                       
--------------------------|---------------------------|
--------------------------|-----------------------3h5-|
--------------------------|---------------------------|
--3--3--3--3--3--3--3--3--|--3--3--3--3--3--3--3------|
--------------------------|---------------------------|


                                                      
--------------------------|--------------------------|
--------------------------|--------------------------|
--------------------------|--------------------------|
--1--1--1--1--1--1--1--1--|--0--0--0--0--1--1--1--1--|
--------------------------|--------------------------|


                                                           
----------------------------|-----------------------------|
----------------------------|-----------------------------|
--------1----------1--------|--------1----------1---------|
--3--3----3--3-1-3---3---3--|--3--3----3--3-1-3---3---3-3-|
----------------------------|-----------------------------|


                                                                             
--------------------------|--------------3----5----|------------------------|
--------------------------|------------------------|--2-2-2-2-2----2--------|
--------------------------|------------------------|------------------------|
--1--1--1--1--1--1--1--1--|--1--1--1--1------------|------------------------|
--------------------------|------------------------|------------------------|


                                                                             
------------------------|------------------------|--------------------------|
--0-0-0-0-0----0--------|------------------------|--------------------------|
------------------------|--3-3-3-3-3----3--------|--0--0--0--0--2--2--2--2--|
------------------------|------------------------|--------------------------|
------------------------|------------------------|--------------------------|


                                                                           
------------------------|------------------------|------------------------|
--2-2-2-2-2----2--------|--0-0-0-0-0----0--------|------------------------|
------------------------|------------------------|--3-3-3-3-3----3--------|
------------------------|------------------------|------------------------|
------------------------|------------------------|------------------------|


                                                                             
--------------------------|------------------------|------------------------|
--------------------------|------------------------|------------------------|
--0--0--0--0--2--2--2--2--|--4-4-4-4-4----4--------|--2-2-2-2-2----2--------|
--------------------------|------------------------|------------------------|
--------------------------|------------------------|------------------------|


                                                                             
------------------------|--------------------------|------------------------|
------------------------|--------------------------|------------------------|
--0-0-0-0-0----0--------|--------------------------|--4-4-4-4-4----4--------|
------------------------|--2--2--2--2--4--4--4--4--|------------------------|
------------------------|--------------------------|------------------------|


                                                                             
------------------------|------------------------|--------------------------|
------------------------|------------------------|--------------------------|
--2-2-2-2-2----2--------|--0-0-0-0-0----0--------|--------------------------|
------------------------|------------------------|--2--2--2--2--4--4--4--4--|
------------------------|------------------------|--------------------------|


                                                                           
------------------------|------------------------|------------------------|
------------------------|------------------------|------------------------|
--4-4-4-4-4----4--------|--2-2-2-2-2----2--------|--0-0-0-0-0----0--------|
------------------------|------------------------|------------------------|
------------------------|------------------------|------------------------|


                                                                             
--------------------------|------------------------|------------------------|
--------------------------|------------------------|------------------------|
--------------------------|--4-4-4-4-4----4--------|--2-2-2-2-2----2--------|
--2--2--2--2--4--4--4--4--|------------------------|------------------------|
--------------------------|------------------------|------------------------|


                                                     
------------------------|--------------------------||
------------------------|--------------------------||
--0-0-0-0-0----0--------|--------------------------||
------------------------|--2--2--2--2--4--4--4--4--||
------------------------|--------------------------||
Comments