Helloween - Tale That Wasnt Right Chords & Tabs

 

Tale That Wasnt Right Chords & Tabs

Helloween Chords & Tabs

Version: 1 Type: Tab 0 ratings
1 star 2 stars 3 stars 4 stars 5 stars
comments

Tale That Wasnt Right Tab

   
Tale That Wasn't Right (Michael Weikath) 
as performed by Helloween on the album "Keeper Of The Seven Keys pt.1"

Intro 

(clean)

  Am                             E
E :----------------------------|--------------------------|
B :--------13-10-12-12b13~-----|(13)r12--10---10-b12------|
G :9-(10)----------------------|--------------------------|
D :----------------------------|--------------------------|
A :----------------------------|--------------------------|
E :----------------------------|--------------------------|

   Am
E :12-12-10---------------------|
B :---------13-12-13-10---10-12-|
G :---------------------9-------|
D :-----------------------------|
A :-----------------------------|
E :-----------------------------|

  F
E :--------------------------------------------|
B :12-b13-12-10-13-b15-13-10-h12-h13-p12-p10---|
G :--------------------------------------------|
D :--------------------------------------------|
A :--------------------------------------------|
E :--------------------------------------------|

  Dm
E :17-17-15------------------|
B :---------13-12-13---------|
G :------------------15------|
D :--------------------------|
A :--------------------------|
E :--------------------------|

   Am
E :------------------------------------|
B :--10-12-12-b13-12-10-h12-h13-p12-p10|
G :9-----------------------------------|
D :------------------------------------|
A :------------------------------------|
E :------------------------------------|

   Am           E
E :----------------------------------------|
B :---10-12-b13-12-13-b15--13-10-b12--10---|
G :-9--------------------------------------|
D :----------------------------------------|
A :----------------------------------------|
E :----------------------------------------|

Verses are accompanied by the same chord progression as above.
The only exception: In the 1st Verse before "Thanx to you..." G must be played

CHORUS:

[ Tab from: http://www.guitartabs.cc/tabs/h/helloween/tale_that_wasnt_right_tab.html ]
E :----|--------|--------|--------|--------|---------|--------|--------|
B :----|2-------|--------|--------|--------|---------|--------|2-------|
G :----|2-------|0-------|3-------|--------|---------|--------|2-------|
D :0-2-|0-------|0-------|3-------|3-------|/5-------|0-2-----|0-------|
A :----|--------|x-------|5-------|3-------|/5-------|--------|--------|
E :----|--------|3-------|--------|1-------|/3-------|--------|--------|
  In my heart...                                      Should be...



E :--------|--------|--------|----------------|
B :--------|--------|--------|----------------|
G :0-------|--------|--------|2---------------|
D :0-------|3-------|2-------|2---------------|
A :x-------|3-------|2-------|0---------------|
E :3-------|1-------|0-------|----------------|


Solo
                      D5                       G5
E :------------------|------------------------|---------------------|
B :------------------|------------------------|---------------------|
G :------------------|12-~--10h-12p-10-~------|----------------12---|
D :----7---9-/10-9-7-|------------------------|---9-10-12-----------|
A :7-----------------|------------------------|10---------10--------|
E :------------------|------------------------|---------------------|

   C5                    F5                  D5 
                                             (I guess there's some pinch 
                                              harmonics are played but I'm 
                                              too lazy to figure it out)
E :---------------------|-------------------|--------------------------|
B :---------------------|-------------------|12-b13-15-p13-p12-~-------|
G :10----9-h10-p9-~-----|-------------------|--------------------------|
D :---------------------|--7-9-10---10-~----|--------------------------|
A :---------------------|---------8---------|--------------------------|
E :---------------------|-------------------|--------------------------|
  
   E5              A5
E :--------------------|
B :--------------------|
G :--------------------|
D :--6-7-/5-4-4-h5-7~--|
A :7-------------------|
E :--------------------|


Comments