Helloween - Sun For The World Chords & Tabs

 

Sun For The World Chords & Tabs

Helloween Chords & Tabs

Version: 1 Type: Tab 0 ratings
1 star 2 stars 3 stars 4 stars 5 stars
comments

Sun For The World Tab

   
HELLOWEEN 
SUN FOR THE WORLD
from the Rabbit Don't Come Easy record
tabed by "loveandtrust@pobox.sk"

Note: This song sounded great in Zilina, Slovakia when played live before the
final shot How Many Tears, so I suggest you will like it too...
Happy happy Helloween!!!

Sitar intro:
e--------------|----------------|-----------------------------------|
B--------------|-3--------------|---------------------------------3-|
G-7-6tr7~~~----|-2----------0-2-|-3--5-2tr3---2tr3---2tr3-0-7-6---2-|
D-----------8--|-0--------------|-----------5------5------------8-0-|
A--------------|-0--------------|---------------------------------0-|
E--------------|----------------|-----------------------------------|

e------------|-------------|----------||
B-(3)--------|-------------|-3--------||
G-(2)--------|-------------|-2--------||
D-(0)--------|-------------|-0--------||
A-(0)--------|-------------|-0--------||
E------------|-3~~~~-------|----------||

Drum intro:                 6x 
e-----------------------------|
B-----------------------------|
G-----------------------------|
D-----------------------------|
A-5-5-5---5-5-5-5-5---5-5-5---|
E-----------------------------|
  PM-----------------------|

Main riff:        3x
e-------------------|-----------------||
B-------------------|-----------------||
G-7-----7---7/8\7---|-7-----7---7-----||
D-7-----7---7/8\7---|-7-----7---7-----||
A-5-----5---5/6\5---|-5-----5---5-----||
E-5-----5---5/6\5---|-5-----5---5-----||

Verse:            4x
e-------------------|
B-------------------|
G-7-----7---7/8\7---|
D-7-----7---7/8\7---|
A-5-----5---5/6\5---|
E-5-----5---5/6\5---|

                                    4x
e-------------------------------------|
B-------------------------------------|
G-------------------------------------|
D-------------------------------------|
A-8-5---5-8-5---5-13-8----8-13-8----8-|
E-----6-------6--------10--------10---|
  PM---------------------------------|

on the second time end with this:
e---------------------------------|
B---------------------------------|
G---------------------------------|
D---------------------------------|
A-8-5---5-8-5---5-8-6-5---6-5-----|
E-----6-------6---------8-----8-6-|
  PM-----------------------------|

Forty million years ago, there was a boy called Leif
His skin was grey, his eyes were red, tentacles counted five
Grown up in a nomad's house, his parents beloved son
There never was a slightest sign, he'd be the chosen one

Pre-chorus:
e-------------------------------|-------------------------------|
B-------------------------------|-------------------------------|
G-------------------------------|-------------------------------|
D-------------------------------|-------------------------------|
A-----------------------5-5-4-4-|-----------------------5-5-4-4-|
E-5-5-5---------5-5-4-4---------|-5-5-5---------5-5-4-4---------|
  PM---|        PM-------------|  PM---|        PM-------------|  
  Leif!         (Leif!)           Help us!      (Leif!)
[ Tab from: http://www.guitartabs.cc/tabs/h/helloween/sun_for_the_world_tab.html ]
e---------------------------------|---------------------------------|
B---------------------------------|---------------------------------|
G-7-7-6-6-------------------------|---------------------------------|
D---------7-7-6-6-----------------|---------------------------------|
A-------------------------5-5-4-4-|-0-0-0-0-0-0-0-0-0-0-0-0-0-0-0-0-|
E-----------------5-5-4-4---------|---------------------------------|
  PM-----------------------------|  PM-----------------------------|
  Shelter us!                       He turns into the...

Chorus:
D5          G5
Sun for the world
Bb5         C5
Sun for the world
D5           G5
What would I say?
Bb5         C5   C#-5 (x456xx) 
Would it be me?
   D5
My friend...

Verse 2:
Down on Earth we see a star dying in its light
And suddenly it all explodes, a new sun shines with Leif

Chorus 2 (second part):
D5          G5
Sun for the world
Bb5         C5
Sun for the world
D5             G5
What would you do?
Bb5         C5    C#-5
Would it be you?

Guitar solo:
Bb5
e-18-17-15----------------------------------------------------------------|
B----------18-17-15----------------15-17-18-17-15-------------------------|
G-------------------17-15-14-15-17----------------17-15-14-15-14----------|
D----------------------------------------------------------------17-15-14-|
A-------------------------------------------------------------------------|
E-------------------------------------------------------------------------|
  My friend...

  D5                    G5                Bb5  
e---------------------|-----------------|----------------------------------|
B---------------------|-----------------|-18-------------------------------|
G-------------14--15--|-12~~~---14--15--|---------17------12b(14)r(12)p10\-|
D-12------12----------|-----------------|-----15---------------------------|
A-----12--------------|-----------------|-------------15-------------------|
E---------------------|-----------------|----------------------------------|

  C5                 D5                  G5 
e------------------|-------------------|------------------|
B------------------|-------------------|------------------|
G-\9---------------|----------14-------|----------14--15--|
D-------12--10~~---|-/12~~~--------15--|-17~~~------------|
A------------------|-------------------|------------------|
E------------------|-------------------|------------------|

  Bb5
e---------/20--17------|---------------||
B-18~~~------------18--|---------------||
G----------------------|-17b~~~~-------||
D----------------------|---------------||
A----------------------|---------------||
E----------------------|---------------||

Interlude:                          7x
e--------------------------------------|
B--------------------------------------|
G--------------------------------------|
D-12-0-0-10-0-0-12-0-0-10-0-0-8-10-8-7-|
A--------------------------------------|
E--------------------------------------|
  PM----------------------------------|

e--------------------------------------||
B---------------------------10-11-10~--||
G--------------------7-9-10------------||
D-------------7-8-10-------------------||
B-------5-7-8--------------------------||
E-5-6-8--------------------------------||
  PM-----------------------|

Pre-chorus 3:
Bb5       B-5 (x234xx)  C5                C#-5 
Leif!     Help us!      Shelter us!    He turns into the...

For outro play the main riff!


Note: That's all, folks! If you liked it or you want some more Rabbit
stuff or you don't know what to do with yourself, just let me know!!!
For comments, suggestions, threads or marriage proposals write to "loveandtrust@pobox.sk" <:-)
Comments