Helloween - Ride The Sky Chords & Tabs

 

Ride The Sky Chords & Tabs

Helloween Chords & Tabs

Version: 1 Type: Tab 0 ratings
1 star 2 stars 3 stars 4 stars 5 stars
comments

Ride The Sky Tab

----------------------------------
	Ride the Sky
----------------------------------
	------------		   Walls of Jericho
	------------	          \----------------/
	   ------

Intro

 Part 1
E|-------------------------------------------|-----------|
B|-------------------------------------------|-----------|
G|-------------------------------------------|-----------|
D|-------------------------------------------|-----7-6-*-|
A|-------------------------------------------|-7-6-5-4-4-|
e|-0-2-2-2-2-2-2-0-2-2-2-2-2-2-0-2-2-2-2-2-2-|-5-4-----2-|

 Part 2
E|-----------------------------|---------------|
B|-----------------------------|---------------|
G|-----------------------------|---------------|
D|-----------------------------|-------7-6---*-|
A|-----------------------------|-7-6-7-5-4-7-4-|
e|-0-2-2-2-2-2-2-0-2-2-2-2-2-2-|-5-4-5-----5-2-|

Repeat Part 1 

E|-------------------------------------|
B|-------------------------------------|
G|-------------------------------------|
D|-----------------------------7-6-7-9-|
A|-----------------------------5-4-5-7-|
e|-0-2-2-2-2-2-2-0-2-2-2-2-2-2---------|

Let Guitar 1 play low notes and Guitar 2 the 'interludes' between.
Repeat this whole procedure again, but now both guitars play, and DO NOT
use the notes with stares above!!!!

Verse

  
 
 play this 7x           play this 6x    
E|---------------|------|---------------|-------------|
B|---------------|------|---------------|-------------|
G|---------------|------|---------------|-------------|
D|---------------|-7--6-|---------------|-------7-6-7-|
A|---------------|-5--4-|---------------|-7-6-7-5-4-5-|
e|-0-2-2-2-2-2-2-|------|-0-2-2-2-2-2-2-|-5-4-5-------|

Now there's this bridge that I'm not very sure on. But anyway 
I'v got something that at least sounds pretty good.

Bridge
[ Tab from: http://www.guitartabs.cc/tabs/h/helloween/ride_the_sky_tab.html ]
  Set me free,
  Oooooooooooooh!
  Set me free!!!





 Part 1 4x Part 2 4x 
E|---------|---------| Repeat Part 1 |------------------------------------|
B|---------|---------| 4 times and   |------------------------------------|
G|---------|---------| then::::::::: |---------------------------------4--|
D|-------2-|-------4-|               |-4-4-4-4-4-4-4-4-4-4-4-4-5-5-7-7----|
A|---0-2---|---0-4---|               |------------------------------------|
e|-0-------|-2-------|               |------------------------------------|
P.M[___]     [___]

Pre Chorus

  (* - very fast strumming)
This is a very simple riff, you play it twice, first time end 1 second time end 2! 
That wasn't so hard, eh?

			             End 1     End 2
E|-----------------------------------|---------|--------|
B|-----------------------------------|---------|--------|
G|-------------*4----------*6---4----|---------|-*4---8-|
D|-*7---6-*4----2---7-*6----4---2-*7-|-*4--*6--|--2---6-|
A|--5---4--2--------5--4-----------5-|--2---4--|--------|
e|-----------------------------------|---------|--------|

Chorus

Ride the sky
Ride the sky
Give me wings to fly
Ride the sky

  Part 1 2x		            Part 2  Part 3
E|----------------------------------|-------|-----------------------------|
B|----------------------------------|-------|-----------------------------|
G|----------------------------------|-------|-----------------------------|
D|-4-4----------6---------6---------|--7--4-|-4-4----------6---------4----|
A|-2-2--4-4-4-4-4-4-4-4-4-4-4-4-4-4-|--5--2-|-2-2--4-4-4-4-4-4-4-4-4-2----|
e|----------------------------------|-------|-----------------------------|

Repeat this twice, last time skip Part 3 and go back to the intro riff, but play it only one time.

Verse 2

  BRIDGE

PRECHORUS

CHORUS

SOLO     (coming up soon ((( uhm... maybe!))))

CHORUS



Comments