Helloween - Power Chords & Tabs

 

Power Chords & Tabs

Helloween Chords & Tabs

Version: 2 Type: Bass Tab 0 ratings
1 star 2 stars 3 stars 4 stars 5 stars
comments

Power Bass Tab

G||------------------------|------------------------|------------------------|
D||------------------------|------------------------|------------------------|
A||--0--0--0--0--0---------|--0--0--0--0--0---------|--0--0--0--0--0---------|
E||-----------------3------|-----------------3------|-----------------3------|


                                                                       
---------------------|--------------------------|---------------------|
--3------2-----------|--------3--3--------3--3--|---------------------|
----------------3----|--1--1--------1--1--------|--1------3------5----|
---------------------|--------------------------|---------------------|


                                                                            
--------------------------|--2------------------|--------5--5--------5--5--|
--------5--5--------5--5--|---------5------2----|--3--3--------3--3--------|
--3--3--------3--3--------|---------------------|--------------------------|
--------------------------|---------------------|--------------------------|


                                                                       
----------------2----|--------------------------|---------------------|
--3------5-----------|--3--3--3--3--2--2--2--2--|---------------------|
---------------------|--------------------------|--5------3-----------|
---------------------|--------------------------|----------------5----|


                                                                            
--------------------------|---------------------|--------7--7--------7--7--|
--------3--3--------3--3--|---------------------|--5--5--------5--5--------|
--1--1--------1--1--------|--1------3------5----|--------------------------|
--------------------------|---------------------|--------------------------|


                                                                     
---------------------|------------------------|---------------------|
---------------------|--------7--7------------|----------------5----|
---------------------|--5--5--------5----7----|--8------8-----------|
--6------5------1----|------------------------|---------------------|


                                                                         
----------------------|----------------------|--------------------------|
--7------5--5---------|----------------------|--------------------------|
-----------------8----|--5------3--3---------|--5--5--5--5--5--5--5--5--|
----------------------|-----------------5----|--------------------------|


                                                      
--------------------------|--------------------------|
--------------------------|--------------------------|
--5--5--5--5--5--5--5--5--|--1--1--1--1--1--1--1--1--|
--------------------------|--------------------------|


                                                      
--------------------------|--------------------------|
--------------------------|--------------------------|
--1--1--1--1--1--1--1--1--|--3--3--3--3--3--3--3--3--|
--------------------------|--------------------------|


                                                      
--------------------------|--------------------------|
--------------------------|--3--3--3--3--3--3--3--3--|
--3--3--3--3--3--3--3--3--|--------------------------|
--------------------------|--------------------------|


                                                      
--------------------------|--------------------------|
--2--2--2--2--2--2--2--2--|--------------------------|
--------------------------|--5--5--5--5--5--5--5--5--|
--------------------------|--------------------------|


                                                      
--------------------------|--------------------------|
--------------------------|--------------------------|
--5--5--5--5--5--5--5--5--|--1--1--1--1--1--1--1--1--|
--------------------------|--------------------------|


                                                      
--------------------------|--------------------------|
--------------------------|--------------------------|
--1--1--1--1--1--1--1--1--|--3--3--3--3--3--3--3--3--|
--------------------------|--------------------------|


                                                                            
--------------------------|--------------------------|---------------------|
--------------------------|--------------------------|---------------------|
--------------------------|--5--5--5--5--5--5--5--5--|---------------------|
--0--0--0--0--0--0--0--0--|--------------------------|--5------1------0----|


                                                      
--------------------------|--------------------------|
--------7--7--------7--7--|--8--8--7--7--5--5--4--4--|
--5--5--------5--5--------|--------------------------|
--------------------------|--------------------------|


                                                      
--------------------------|--------------------------|
--------3--3--------3--3--|--5--5--3--3--2--2--3--3--|
--1--1--------1--1--------|--------------------------|
--------------------------|--------------------------|


                                                      
--------------------------|--2--2--------------------|
--------5--5--------5--5--|--------5--5--3--3--2--2--|
--3--3--------3--3--------|--------------------------|
--------------------------|--------------------------|


                                                      
--------------------------|--------------------------|
--3--3--3--3--3--3--3--3--|--2--2--2--2--2--2--2--2--|
--------------------------|--------------------------|
--------------------------|--------------------------|


                                                      
--------------------------|--------------------------|
--------7--7--------7--7--|--8--8--7--7--5--5--------|
--5--5--------5--5--------|--------------------8--8--|
--------------------------|--------------------------|


                                                      
--------7--7--------7--7--|--------------------------|
--5--5--------5--5--------|--5--5--------------------|
--------------------------|--------8--8--7--7--5--5--|
--------------------------|--------------------------|


                                                                               
--------------------------|--2--2--------------------|------------------------|
--------5--5--------5--5--|--------5--5--4--4--2--2--|------------------------|
--3--3--------3--3--------|--------------------------|--0--0--0--0--0---------|
--------------------------|--------------------------|-----------------3------|


                                                                       
---------------------|--------------------------|---------------------|
--3------2-----------|--------3--3--------3--3--|---------------------|
----------------3----|--1--1--------1--1--------|--1------3------5----|
---------------------|--------------------------|---------------------|


                                                                            
--------------------------|--2------------------|--------5--5--------5--5--|
--------5--5--------5--5--|---------5------2----|--3--3--------3--3--------|
--3--3--------3--3--------|---------------------|--------------------------|
--------------------------|---------------------|--------------------------|


                                                                       
----------------2----|--------------------------|---------------------|
--3------5-----------|--3--3--3--3--2--2--2--2--|---------------------|
---------------------|--------------------------|--5------3-----------|
---------------------|--------------------------|----------------5----|


                                                                            
--------------------------|---------------------|--------7--7--------7--7--|
--------3--3--------3--3--|---------------------|--5--5--------5--5--------|
--1--1--------1--1--------|--1------3------5----|--------------------------|
--------------------------|---------------------|--------------------------|


                                                                     
---------------------|------------------------|---------------------|
---------------------|--------7--7------------|----------------5----|
---------------------|--5--5--------5----7----|--8------8-----------|
--6------5------1----|------------------------|---------------------|


                                                                         
----------------------|----------------------|--------------------------|
--7------5--5---------|----------------------|--------------------------|
-----------------8----|--5------3--3---------|--5--5--5--5--5--5--5--5--|
----------------------|-----------------5----|--------------------------|


                                                      
--------------------------|--------------------------|
--------------------------|--------------------------|
--5--5--5--5--5--5--5--5--|--1--1--1--1--1--1--1--1--|
--------------------------|--------------------------|


                                                      
--------------------------|--------------------------|
--------------------------|--------------------------|
--1--1--1--1--1--1--1--1--|--3--3--3--3--3--3--3--3--|
--------------------------|--------------------------|


                                                      
--------------------------|--------------------------|
--------------------------|--3--3--3--3--3--3--3--3--|
--3--3--3--3--3--3--3--3--|--------------------------|
--------------------------|--------------------------|


                                                      
--------------------------|--------------------------|
--2--2--2--2--2--2--2--2--|--------------------------|
--------------------------|--5--5--5--5--5--5--5--5--|
--------------------------|--------------------------|


                                                      
--------------------------|--------------------------|
--------------------------|--------------------------|
--5--5--5--5--5--5--5--5--|--1--1--1--1--1--1--1--1--|
--------------------------|--------------------------|


                                                      
--------------------------|--------------------------|
--------------------------|--------------------------|
--1--1--1--1--1--1--1--1--|--------------------------|
--------------------------|--3--3--3--3--3--3--3--3--|


                                                                            
--------------------------|--------------------------|---------------------|
--------------------------|--------------------------|---------------------|
--------------------------|--5--5--5--5--5--5--5--5--|---------------------|
--0--0--0--0--0--0--0--0--|--------------------------|--5------1------0----|


                                                      
--------------------------|--------------------------|
--------7--7--------7--7--|--8--8--7--7--5--5--4--4--|
--5--5--------5--5--------|--------------------------|
--------------------------|--------------------------|


                                                      
--------------------------|--------------------------|
--------3--3--------3--3--|--5--5--3--3--2--2--3--3--|
--1--1--------1--1--------|--------------------------|
--------------------------|--------------------------|


                                                      
--------------------------|--2--2--------------------|
--------5--5--------5--5--|--------5--5--3--3--2--2--|
--3--3--------3--3--------|--------------------------|
--------------------------|--------------------------|


                                                      
--------------------------|--------------------------|
--3--3--3--3--3--3--3--3--|--2--2--2--2--2--2--2--2--|
--------------------------|--------------------------|
--------------------------|--------------------------|

[ Tab from: http://www.guitartabs.cc/tabs/h/helloween/power_btab_ver_2.html ]
                                                      
--------------------------|--------------------------|
--------7--7--------7--7--|--8--8--7--7--5--5--------|
--5--5--------5--5--------|--------------------8--8--|
--------------------------|--------------------------|


                                                      
--------7--7--------7--7--|--------------------------|
--5--5--------5--5--------|--5--5--------------------|
--------------------------|--------8--8--7--7--5--5--|
--------------------------|--------------------------|


                                                                               
--------------------------|--2--2--------------------|------------------------|
--------5--5--------5--5--|--------5--5--4--4--2--2--|------------------------|
--3--3--------3--3--------|--------------------------|--0--0--0--0--0---------|
--------------------------|--------------------------|-----------------3------|


                                                                       
---------------------|--------------------------|---------------------|
--3------2-----------|--------3--3--------3--3--|---------------------|
----------------3----|--1--1--------1--1--------|--1------3------5----|
---------------------|--------------------------|---------------------|


                                                                            
--------------------------|--2------------------|--------5--5--------5--5--|
--------5--5--------5--5--|---------5------2----|--3--3--------3--3--------|
--3--3--------3--3--------|---------------------|--------------------------|
--------------------------|---------------------|--------------------------|


                                                                       
----------------2----|--------------------------|---------------------|
--3------5-----------|--3--3--3--3--2--2--2--2--|---------------------|
---------------------|--------------------------|--5------3-----------|
---------------------|--------------------------|----------------5----|


                                                                            
--------------------------|---------------------|--------7--7--------7--7--|
--------3--3--------3--3--|---------------------|--5--5--------5--5--------|
--1--1--------1--1--------|--1------3------5----|--------------------------|
--------------------------|---------------------|--------------------------|


                                                                     
---------------------|------------------------|---------------------|
---------------------|--------7--7------------|----------------5----|
---------------------|--5--5--------5----7----|--8------8-----------|
--6------5------1----|------------------------|---------------------|


                                                                         
----------------------|----------------------|--------------------------|
--7------5--5---------|----------------------|--------------------------|
-----------------8----|--5------3--3---------|--5--5--5--5--5--5--5--5--|
----------------------|-----------------5----|--------------------------|


                                                      
--------------------------|--------------------------|
--------------------------|--------------------------|
--5--5--5--5--5--5--5--5--|--1--1--1--1--1--1--1--1--|
--------------------------|--------------------------|


                                                      
--------------------------|--------------------------|
--------------------------|--------------------------|
--1--1--1--1--1--1--1--1--|--------------------------|
--------------------------|--3--3--3--3--3--3--3--3--|


                                                      
--------------------------|--------------------------|
--------------------------|--------------------------|
--------------------------|--------------------------|
--3--3--3--3--3--3--3--3--|--1--1--1--1--1--1--1--1--|


                                                      
--------------------------|--------------------------|
--------------------------|--------------------------|
--3--3--3--3--3--3--3--3--|--5--5--5--5--5--5--5--5--|
--------------------------|--------------------------|


                                                      
--------------------------|--------------------------|
--------------------------|--------------------------|
--5--5--5--5--5--5--5--5--|--1--1--1--1--1--1--1--1--|
--------------------------|--------------------------|


                                                      
--------------------------|--------------------------|
--------------------------|--------------------------|
--1--1--1--1--1--1--1--1--|--------------------------|
--------------------------|--3--3--3--3--3--3--3--3--|


                                                      
--------------------------|--------------------------|
--------------------------|--------------------------|
--------------------------|--3--3--3--3--3--3--3--3--|
--3--3--3--3--3--3--3--3--|--------------------------|


                                                      
--------------------------|--------------------------|
--2--2--2--2--3--3--5--5--|--------7--7--------7--7--|
--------------------------|--5--5--------5--5--------|
--------------------------|--------------------------|


                                                      
--------------------------|--------------------------|
--8--8--7--7--5--5--4--4--|--------3--3--------3--3--|
--------------------------|--1--1--------1--1--------|
--------------------------|--------------------------|


                                                      
--------------------------|--------------------------|
--5--5--3--3--2--2--3--3--|--------5--5--------5--5--|
--------------------------|--3--3--------3--3--------|
--------------------------|--------------------------|


                                                      
--2--2--------------------|--------------------------|
--------5--5--3--3--2--2--|--3--3--3--3--3--3--3--3--|
--------------------------|--------------------------|
--------------------------|--------------------------|


                                                      
--------------------------|--------------------------|
--2--2--2--2--2--2--2--2--|--------7--7--------7--7--|
--------------------------|--5--5--------5--5--------|
--------------------------|--------------------------|


                                                      
--------------------------|--------7--7--------7--7--|
--8--8--7--7--5--5--------|--5--5--------5--5--------|
--------------------8--8--|--------------------------|
--------------------------|--------------------------|


                                                      
--------------------------|--------------------------|
--5--5--------------------|--------5--5--------5--5--|
--------8--8--7--7--8--8--|--3--3--------3--3--------|
--------------------------|--------------------------|


                                                                          
--2--2--------------------|------------------------|---------------------|
--------5--5--4--4--2--2--|------------------------|--3------2-----------|
--------------------------|--0--0--0-----0---------|----------------3----|
--------------------------|-----------3-----3------|---------------------|


                                                      
--------------------------|--------------------------|
--------------------------|--------------------------|
--5--5--5--5--5--5--5--5--|--5--5--5--5--5--5--5--5--|
--------------------------|--------------------------|


                                                      
--------------------------|--------------------------|
--------------------------|--------------------------|
--1--1--1--1--1--1--1--1--|--1--1--1--1--1--1--1--1--|
--------------------------|--------------------------|


                                                      
--------------------------|--------------------------|
--------------------------|--------------------------|
--------------------------|--------------------------|
--3--3--3--3--3--3--3--3--|--3--3--3--3--3--3--3--3--|


                                                      
--------------------------|--------------------------|
--------------------------|--------------------------|
--------------------------|--3--3--3--3--3--3--3--3--|
--1--1--1--1--1--1--1--1--|--------------------------|


                                                      
--------------------------|--------------------------|
--------------------------|--------------------------|
--5--5--5--5--5--5--5--5--|--5--5--5--5--5--5--5--5--|
--------------------------|--------------------------|


                                                      
--------------------------|--------------------------|
--------------------------|--------------------------|
--1--1--1--1--1--1--1--1--|--1--1--1--1--1--1--1--1--|
--------------------------|--------------------------|


                                                                                
--------------------------|--------------------------|-------------------------|
--------------------------|--------------------------|-------------------------|
--------------------------|--------------------------|--3--3--3--3--3--3--3----|
--3--3--3--3--3--3--3--3--|--3--3--3--3--3--3--3--3--|-------------------------|


                                                                       
---------------------|--------------------------|---------------------|
--3------2-----------|--------3--3--------3--3--|---------------------|
----------------3----|--1--1--------1--1--------|--1------3------5----|
---------------------|--------------------------|---------------------|


                                                                            
--------------------------|--2------------------|--------5--5--------5--5--|
--------5--5--------5--5--|---------5------2----|--3--3--------3--3--------|
--3--3--------3--3--------|---------------------|--------------------------|
--------------------------|---------------------|--------------------------|


                                                                       
----------------2----|--------------------------|---------------------|
--3------5-----------|--3--3--3--3--2--2--2--2--|---------------------|
---------------------|--------------------------|--5------3-----------|
---------------------|--------------------------|----------------5----|


                                                                            
--------------------------|---------------------|--------7--7--------7--7--|
--------3--3--------3--3--|---------------------|--5--5--------5--5--------|
--1--1--------1--1--------|--1------3------5----|--------------------------|
--------------------------|---------------------|--------------------------|


                                                                     
---------------------|------------------------|---------------------|
---------------------|--------7--7------------|----------------5----|
---------------------|--5--5--------5----7----|--8------8-----------|
--6------5------1----|------------------------|---------------------|


                                                                
--7------5-----------|---------------------|-------------------|
----------------7----|--3------2-----------|-------------------|
---------------------|----------------3----|--1----------------|
---------------------|---------------------|-------------------|


                                                                              
------------------|-------------------|------------------|-------------------|
------------------|-------------------|------------------|-------------------|
------------------|----------3--------|------------------|-------------------|
------------------|-------------------|------------------|--5----------------|


                                                                 
------------------|------------------------|-------------------||
------------------|------------------------|-------------------||
------------------|--5--5--5--3--5--3------|--5----------------||
------------------|------------------------|-------------------||
Comments