Helloween - I Want Out Chords & Tabs

 

I Want Out Chords & Tabs

Helloween Chords & Tabs

Version: 2 Type: Bass Tab 0 ratings
1 star 2 stars 3 stars 4 stars 5 stars
comments

I Want Out Bass Tab

   
-------------------------------------------------------------------------------
     I WANT OUT - Helloween
-------------------------------------------------------------------------------

Tabbed By: Sabredog
e-mail: sabredog@gmail.com

Intro
G|-----------------------------------------------------------------|
D|-0-0-0-0-0-0-0-0-----------------0-0-0-0-0-0-0-0-----------------|   x2
A|-----------------1-1-1-1-3-3-3-3-----------------1-1-1-1-3-3-3-3-|   
E|-----------------------------------------------------------------|

Intro -> Main
G|---------------------------------|
D|-0-0-0-0-0-0-0-0-0-0-0-0-0-0-0-0-|
A|---------------------------------|   
E|---------------------------------|

Main
G|---------------------------------------------------------------------------|
D|-0-0-0-0-0-0-0-0-0-0-0-0-0-0-0-0-0-0-0-0-0-0-0-0-0-0-0-0-5-3-2-------------|
A|---------------------------------------------------------------2-5---------|
E|---------------------------------------------------------------------------|

G|---------------------------------------------------------------------------|
D|-0-0-0-0-0-0-0-0-0-0-0-0-0-0-0-0-0-0-0-0-0-0-0-0-0-0-0-0-0-0-0-0-----------|
A|---------------------------------------------------------------------------|
E|---------------------------------------------------------------------------|

Bridge
G|---------------------------------------------------------------------------|
D|---------------------------------------------------------------------------|
A|-3-3-3-1-3-1-3---3-3-3-1-3-1-3---3-3-3-3-3-3-3-3-1-------------------------|
E|---------------------------------------------------------------------------|

Chorus
G|-----------------------------------------------------------------|
D|-0-0-0-0-0-0-0-0-----------------0-0-0-0-0-0-0-0-----------------|
A|-----------------1-1-1-1-3-3-3-3-----------------1-1-1-1-3-3-3-3-|   
E|-----------------------------------------------------------------|

G|-----------------------------------------------------------------|
D|-0-0-0-0-0-0-0-0-----------------0-0-0-0-0-0-0-0-----------------|
A|-----------------1-1-1-1-3-3-3-3-----------------1-1-1-1-3-3-3-3-|   
E|-----------------------------------------------------------------|

Chorus to Main
G|-----------------------------------------------------------------|
D|-0-0-0-0-0-0-0-0-----------------0-0-0-0-0-0-0-0-----------------|
A|-----------------1-1-1-1-3-3-3-3-----------------1-1-1-1-3-3-3-3-|   
E|-----------------------------------------------------------------|

Main
G|---------------------------------------------------------------------------|
D|-0-0-0-0-0-0-0-0-0-0-0-0-0-0-0-0-0-0-0-0-0-0-0-0-0-0-0-0-5-3-2-------------|
A|---------------------------------------------------------------2-5---------|
E|---------------------------------------------------------------------------|

G|---------------------------------------------------------------------------|
D|-0-0-0-0-0-0-0-0-0-0-0-0-0-0-0-0-0-0-0-0-0-0-0-0-0-0-0-0-0-0-0-0-----------|
A|---------------------------------------------------------------------------|
E|---------------------------------------------------------------------------|
[ Tab from: http://www.guitartabs.cc/tabs/h/helloween/i_want_out_btab_ver_2.html ]
Bridge
G|---------------------------------------------------|
D|---------------------------------------------------|
A|-3-3-3-1-3-1-3---3-3-3-1-3-1-3---3-3-3-3-3-3-3-3-1-|
E|---------------------------------------------------|

Chorus
G|-----------------------------------------------------------------|
D|-0-0-0-0-0-0-0-0-----------------0-0-0-0-0-0-0-0-----------------|
A|-----------------1-1-1-1-3-3-3-3-----------------1-1-1-1-3-3-3-3-|   
E|-----------------------------------------------------------------|

G|-----------------------------------------------------------------|
D|-0-0-0-0-0-0-0-0-----------------0-0-0-0-0-0-0-0-----------------|
A|-----------------1-1-1-1-3-3-3-3-----------------1-1-1-1-3-3-3-3-|   
E|-----------------------------------------------------------------|

G|---------------------------------|
D|-0-0-0-0-0-0-0-0-0-0-0-0-0-0-0-0-|
A|---------------------------------|
E|---------------------------------|

Interlude
G|---------------------------------------------------------------|
D|-00000---00000---00000---00000---------------------------------|
A|---------------------------------11111---11111---11111---11111-|
E|---------------------------------------------------------------|

G|---------------------------------------------------|
D|---------------------------------0-0-0-0-0-0-0-0-5-|
A|-33333---33333---33333---33333---------------------|
E|---------------------------------------------------|

Solo
G|-----------------------------------------------------------------|
D|-0-0-0-0-3-3-3-3-----------------0-0-0-0-3-3-3-3-3-3-3-3-7-7-7-7-|   x4
A|-----------------3-3-3-3-3-3-3-3---------------------------------|
E|-----------------------------------------------------------------|

G|-----------------------------------------------------------------|
D|-0-0-0-0-0-0-0-0-----------------0-0-0-0-0-0-0-0-----------------|   x2
A|-----------------1-1-1-1-3-3-3-3-----------------1-1-1-1-3-3-3-3-|
E|-----------------------------------------------------------------|

Chorus
G|-----------------------------------------------------------------|
D|-0-0-0-0-0-0-0-0-----------------0-0-0-0-0-0-0-0-----------------|
A|-----------------1-1-1-1-3-3-3-3-----------------1-1-1-1-3-3-3-3-|   
E|-----------------------------------------------------------------|

G|-----------------------------------------------------------------|
D|-0-0-0-0-0-0-0-0-----------------0-0-0-0-0-0-0-0-----------------|
A|-----------------1-1-1-1-3-3-3-3-----------------1-1-1-1-3-3-3-3-|   
E|-----------------------------------------------------------------|

Outro
G|-----------------------------------------------------------------|
D|-0-0-0-0-0-0-0-0-----------------0-0-0-0-0-0-0-0-----------------| x2
A|-----------------1-1-1-1-3-3-3-3-----------------1-1-1-1-3-3-3-3-|   
E|-----------------------------------------------------------------|

G|-------|
D|-0-0-0-|
A|-------|   
E|-------|

| /  slide up
| \  slide down
| h  hammer-on
| p  pull-off
| ~  vibrato
| +  harmonic
| x  Mute note
===============================================================================

And there ye have it. Nothing particularly difficult... at some points, you may need to
use your ear to tune into the note speed a tad more than I've specified, but this should
be enough to get you a good feel of the song.
Comments