Helloween - I Want Out Chords & Tabs

 

I Want Out Chords & Tabs

Helloween Chords & Tabs

Version: 1 Type: Bass Tab 0 ratings
1 star 2 stars 3 stars 4 stars 5 stars
comments

I Want Out Bass Tab

	Helloween
	I Want Out 
	Bass Tab

This is the begining of the tune.  Hopefully, I'll get around to figure out
the rest sooner or later.

G ------------------------------------
D -0-0-0-0--0-0-0-0--0-0-0-0--0-0-0-0-
A ------------------------------------
E ------------------------------------

G ------------------------------------
D ------------------------------------
A -1-1-1-1--1-1-1-1--3-3-3-3--3-3-3-3-
E ------------------------------------
[ Tab from: http://www.guitartabs.cc/tabs/h/helloween/i_want_out_btab.html ]
Repeat 4 times above four measures four times.

   
   6 6 8  p p 6 6 8  p p 6 6 8  p p 6 6 8  where 6 = 16th note
G ----------------------------------------       8 = 8th note
D -0-0-0--0-0-0-0-0--0-0-0-0-0--0-0-0-0-0-       p = 32nd note (real fast)
A ----------------------------------------
E ----------------------------------------

   p p 6 6 8  p p 6 6 8  
G --------------------------------- 
D -0-0-0-0-0--0-0-0-0-0--5-3-2-----
A -----------------------------2-5-
E ---------------------------------

More later...
Comments