Helloween - Gorgar Chords & Tabs

 

Gorgar Chords & Tabs

Helloween Chords & Tabs

Version: 1 Type: Tab 0 ratings
1 star 2 stars 3 stars 4 stars 5 stars
comments

Gorgar Tab

Helloween   : Gorgar !
from album  :'Walls Of Jericho'
written by Michael Weikath/Kai Hansen
tablature by: Vermin

	        	* NOTE: *

i'm written this from memory and
this is my first helloween tab, so
some parts are complete wrong, but they sounds right...
In my personal opinion, this transcription is approx. 50-?0accurate.

any comments,questions, pleasures, tabulatures to: VERMIN@DLC.FI

part1
>e:---------------------------------------------------|
>B:---------------------------------------------------| guitar 1 on
>G:---------------------------------------------------| beginning...
>D:--------------5-----------------------5------------|
>A:--3-----------4-----------3-----------4------------|
>E:--2-----------------------2------------------------|


part2
>e:--------------234234234234------------234234234-----(fast)-----|
>B:--234234234234------------234234234234-------------------------|  
>G:---------------------------------------------------------------| solo in
>D:---------------------------------------------------------------| backround...
>A:---------------------------------------------------------------| 
>E:---------------------------------------------------------------|  


part3
>e:-------------------------------------|---------|---------------| ***
>B:-------------------------------------|----7~---|---------------| main riff,
>G:-------------------------------------|---------|---------------| played
>D:-------------------------------------|---------|---------------| through the song...
>A:-3-5-3-5--3-3-3---3-5-3-5--3-3-3-----|---------|---------------|
>E:-3-5-3-5--3-3-3---3-5-3-5--3-3-3-----|---------|---------------| ***


part4
>e:------------------------------------------| comes after main riff is
>B:------------------------------------------| played, and just before
>G:------------------------------------------| part "binball speaks to..."
>D:--6-5-4-3---------------------------------| 
>A:----------6-5-4-3-------------------------|
>E:------------------------------------------|

[ Tab from: http://www.guitartabs.cc/tabs/h/helloween/gorgar_tab.html ]
part5
>e:----------------------------------------------------------------------|
>B:----------------------------------------------------------------------| ...before
>G:(quite fast)----------------------------------------------------------| chorus...
>D:----------------------------------------------------------------------|
>A:-3-3-5---------5-5-0--------------------------------------------------|
>E:-1-1-3---------3-3-0--------------------------------------------------|
    a binnball    speaks to you...


part6                                    
>e:------------------------------------|---------------
>B:------------------------------------|---------------
>G:------------------------------------|--------------- go on!
>D:-5-5-------7-7-------6-5------------|---------------
>A:-5-5-------7-7-------6-5------------|---------------
>E:-5-5-------7-7-------6-5------------|-22234333------ <-- part6a ( man you are dead...)
 waisting    you'r     money...


part7
>e:---------------------------------------------------| best part in song!!!!
>B:----------9---8--8---7-7---6~----------------------| the solo part 1
>G:--5-6-7-8---8------7-----6-------------------------| second is so hard
>D:---------------------------------------------------| to find out so it's
>A:---------------------------------------------------| not listed. sorry.
>E:---------------------------------------------------|


part8
>e:----------------------------------------------------|
>B:---------9-7-0-12-13-(12,11,10,9,8,7,6,5~,very fast)| solo 1,
>G:-5-6-7-8--------------------------------------------| continue...
>D:----------------------------------------------------|
>A:----------------------------------------------------|
>E:----------------------------------------------------|

repeat main riff (chorus)

Order:

part1 + part2 
part3 (repeat about 5 times...)
part3 + part4 slowly in backround...
part4 (one's only)
part5 
part3 + part4 slowly in backround...
part4
part5
part3 
part6   (few times...)
part6a  (few times...)
part7
part8
part7
part8
part3 (couple times)
part3 + part4 slowly in backround.

i think that's right order (hopefully!)
Comments