Helloween - Future World Chords & Tabs

 

Future World Chords & Tabs

Helloween Chords & Tabs

Version: 1 Type: Tab 0 ratings
1 star 2 stars 3 stars 4 stars 5 stars
comments

Future World Tab

   
band: Helloween
      song: Future World
      album: Keeper Of The Seven Keys I
      transcribed by: Niuton Filho
      http://www.geocities/SunsetStrip/Amphitheatre/5457/


      notation:
      ^ = bend
      ^> = bend and release
      x = fret-hand muting
      pm. = pick-hand muting
      spm.= slight palm muting
      h = hammer-on
      p = pull-off
      ~ = vibrato
      t = tap-on
      / = slide up
      \ = slide down
      h. = harmonics
      (9) = ghost note
      " = trem picking



      Intro (gtr 1):
      e:--------------------------------------------------|
      B:-----------------------------------------------nx-|
      G:-----------------------------------9--7-----------|
      D:-----9--7--9-----9--7--9-----9--7--------9--7--9--|
      A:--7-----------7-----------7-----------------------|
      E:--------------------------------------------------|
      (_______________________________________________)


      Intro (gtr 2 enters in second time)
      e:---------------------------------------------------------------------------|
      B:-----------8--8--8---------------------------------------------------------|
      G:-----------7--7--7---------------------------------------------------------|
      D:--9--9--9--5--5--5--7--7--7--9--9--9----7--7--7--9--9-9-9-9--9-9-9-9--9-9-9|
      A:--7--7--7-----------5--5--5--7--7--7----5--5--5--7--7-7-7-7--7-7-7-7--7-7-7|
      E:---------------------------------------------------------------------------|
      (______________________)


      e:-------------------------------------------------------------------|
      B:---------------8---------------------------------------------------|
      G:---------------7---------------------------------------------------|
      D:-9--9-9-9-9----5--(same-tempo)--7----------------9-----------------|
      A:-7--7-7-7-7---------------------5--(same-tempo)--7--(same-tempo)---|
      E:-------------------------------------------------------------------|
      (__________) Verse 1 (If you`re out there all alone...)


      e:---------------------------------------------------------------------------|
      B:---------------------------------------------------------------------------|
      G:---------------------------------------------------------------------------|
      D:---------------------------------------------------------------------------|
      A:--7-7-7-7--7-7-7-7--7-7-7-7--7-7-7-7--3-3-3-3--3-3-3-3--7-7-7-7--7-7-7-7--3|
      E:--------------------------------------------------------0-0-0-0--0-0-0-0---|
      (_______________________________________________________________________)


      e:-----------------------------------------------------------|
      B:-----------------------------------------------------------|
      G:-----------------------------------------------------------|
      D:-----------------------------------5--4--------------------|
      A:-3-3-3--3-3-3-3--7-7-7-7--7-7-7-7--3--2--7-7-7-7--7-7-7-7--|
      E:-----------------0-0-0-0--0-0-0-0--------0-0-0-0--0-0-0-0--|
      (________________) (________________) Verse 2


      e:---------------------------------------------------------------------------|
      B:---------------------------------------------------------------------------|
      G:---------------------------------------------------------------------------|
      D:--9--9-9-9--9--9-9-9--5--5-5-5-----9--9-9-9--5--5-5-5-----9--9-9-9--5--2---|
      A:--7--7-7-7--7--7-7-7--3--3-3-3-----7--7-7-7--3--3-3-3-----7--7-7-7--3--2---|
      E:--------------------------------0----------------------0------------------0|
      Bridge(We all live in happiness...)


      e:---------------------------------------------------------------------------|
      B:-------------------|-------------------------------------------------------|
      G:-------------------|-------------------------------------------------------|
      D:--9-9-9-----9-9-9--|-------------------------------------------------------|
      A:--7-7-7-----7-7-7--|--------------------5-5-5-5--5-5-5-5-------------------|
      E:---------0------------3-3-3-3--3-3-3-3--------------------3-3-3-3--3-3-3-3-|
      (_________________________________) (______________)
e:--------------------------------------------------------------------------|
      B:--------------------------------------------------------------------------|
      G:--------------------------------------------------------------------------|
      D:--------------------------------------------------------------------------|
      A:-5-5-5-5--5-5-5-5--------------------5-5-5-5--5-5-5-5--7--7-7-7--5--4--2--|
      E:-------------------3-3-3-3--3-3-3-3--------------------5--5-5-5--3--2--0--|
      (___________________________________________________) Chorus


      e:-------------------------------------------------------------------------|
      B:-------------------------------------------------------------------------|
      G:-------------------------------------------------------------------------|
      D:--9----5--7--9----5----2----4--4-4-4---------------9----5--7--9----5--7--|
      A:--7----3--5--7----3----0----2--2-2-2---------------7----3--5--7----3--5--|
      E:--0----------0------------------------5p0h4p0h2p0--0----------0----------|



      Verse 2 (You say you`d like to stay...)
      e:-------------------------------------------------------------------------|
      B:-Repeat-Intro-|--w/flanger-pedal-------------------------|-Repeat-Chorus-|
      G:--------------|------------------------------------------|---------------|
      D:--------------|--9----5----9----5----9----5--4--9--------|---------------|
      A:--------------|--7----3----7----3----7----3--2--7--------|---------------|
      E:-----------------0---------0---------0----------0------------------------|



      Intro to solo Guitar
      e:---------------------------------------------------------------------------|
      B:-------------------------------------------2x|-------------------2x|-------|
      G:---------------------------------------------|---------------------|-------|
      D:---------------------------------------------|--4--4-4--4--4--4-4--|-------|
      A:--7-7-7-7--7-7-7-7--10-10-10-10--10-10-10-10-|--2--2-2--2--2--2-2--|-------|
      E:---------------------------------------------------------------------12--14|




      Solo (gtr 1)
      e:------------------------------------------------------14--17b(19)--(19)rb17|
      B:------------------------------------------13--15--17-----------------------|
      G:------------------------------12--14--15-----------------------------------|
      D:------------------12--14--15-----------------------------------------------|
      A:------12--14--15-----------------------------------------------------------|
      E:--15-----------------------------------------------------------------------|
      
      E:--15--17-------17b(19)--(19)--(19)rb17--15--17~--12--15--12--14------12----|
      B:----------15~----------------------------------------------------15------13|
      G:---------------------------------------------------------------------------|
      D:---------------------------------------------------------------------------|
      A:---------------------------------------------------------------------------|
      E:---------------------------------------------------------------------------|

[ Tab from: http://www.guitartabs.cc/tabs/h/helloween/future_world_tab.html ]
      e:------------------------------------------------------------------12h14h15p|
      B:--15--12--13------12----------------------------------12--13--15-----------|
      G:--------------14------12--14--11--12------11--12--14-----------------------|
      D:--------------------------------------14-----------------------------------|
      A:---------------------------------------------------------------------------|
      E:---------------------------------------------------------------------------|


      e:14p12--14b(16)rb14--12--14-------17b(19)--(19)rb17--17--17b(19)--22b(24)--2|
      B:----------------------------15~--------------------------------------------|
      G:---------------------------------------------------------------------------|
      D:---------------------------------------------------------------------------|
      A:---------------------------------------------------------------------------|
      E:---------------------------------------------------------------------------|


      e:4b(26)--19~--22p20p19p20p19p17--19p17------17------------------------------|
      B:---------------------------------------20------20--19--20p19p17--19p17-----|
      G:------------------------------------------------------------------------19-|
      D:---------------------------------------------------------------------------|
      A:---------------------------------------------------------------------------|
      E:---------------------------------------------------------------------------|


      e:---------------------------------------------------17--19--22--20--19------|
      B:-17------------------------------------17--19--20----------------------20~-|
      G:-----19--17--19p17p16------16--17--19--------------------------------------|
      D:-----------------------19--------------------------------------------------|
      A:---------------------------------------------------------------------------|
      E:---------------------------------------------------------------------------|


      e:---------------------------------------------------------------------------|
      B:-----------------------------------------------------------------15p(17)--1|
      G:-14b(16)rb14p12--14b(16)rb14p12--14b(16)rb14p12--14b(16)rb14p12------------|
      D:---------------------------------------------------------------------------|
      A:---------------------------------------------------------------------------|
      E:---------------------------------------------------------------------------|


      e:----------------------------19p15---------19p15h20p15h19p15-------------17p|
      B:5~--12~-(this-riff-2times)---------19p15---------------------19p15(2x)-----|
      G:---------------------------------------------------------------------------|
      D:---------------------------------------------------------------------------|
      A:---------------------------------------------------------------------------|
      E:---------------------------------------------------------------------------|
      
      E:15---------17p15h19p15--19p15---------17p15---------19p15--20p15--19~------|
      B:----19p15----------------------19p15---------19p15-------------------------|
      G:---------------------------------------------------------------------------|
      D:---------------------------------------------------------------------------|
      A:-----------------------------------------------------------------------10--|
      E:---------------------------------------------------------------------------|
      Guitar Solo

      e:---------------------------------------------------------------------------|
      B:-----------------------------------------------------------|---------------|
      G:---------------9--11--12-----------------9------9p11-------|---------------|
      D:----9--10--12-----------------9--11--12-----12--------12~--|---------------|
      A:12------------------------12-------------------------------|-------------9-|
      E:--------------------------------------------------------------8--10--12----|


      e:-------------------------------------------10------------------------------|
      B:-------------------------------10--12--13------15b(17)--(17)rb15--12--15---|
      G:--------------------9--11--12---------------------------------------------1|
      D:---------9--10--12---------------------------------------------------------|
      A:-10--12--------------------------------------------------------------------|
      E:---------------------------------------------------------------------------|


      e:--------------------------------------19--15--17------15-------------------|
      B:----15b(17)--(17)--(17)rb15--12--15~--------------19------17--19--15--17---|
      G:4~------------------------------------------------------------------------1|
      D:---------------------------------------------------------------------------|
      A:---------------------------------------------------------------------------|
      E:---------------------------------------------------------------------------|



      e:---------------------------------------------------15h17h19p17p15--17b(19)-|
      B:---15----------------------------------15--17--19--------------------------|
      G:7------16--17--14--16------14--16--17--------------------------------------|
      D:-----------------------17--------------------------------------------------|
      A:---------------------------------------------------------------------------|
      E:---------------------------------------------------------------------------|


      e:-(19)rb17--15--14~--14b(16)--(16)rb14--12--14--14b(16)--16b(18)-14~-19b(21)|
      B:---------------------------------------------------------------------------|
      G:---------------------------------------------------------------------------|
      D:---------------------------------------------------------------------------|
      A:---------------------------------------------------------------------------|
      E:---------------------------------------------------------------------------|


      e:rb19--15~--19p17------17---------------------------------------------------|
      B:--------------------20------20p19--20p19p17--19p17------17-----------------|
      G:----------------------------------------------------19------19p17--19p17p16|
      D:---------------------------------------------------------------------------|
      A:---------------------------------------------------------------------------|
      E:---------------------------------------------------------------------------|


      e:-------------------------------------------------------------19p17---------|
      B:-------------------------------------------------17--19--20---------20--17~|
      G:--17p16------16----------------------16--17--19----------------------------|
      D:---------19------19--17--16--17--19----------------------------------------|
      A:---------------------------------------------------------------------------|
      E:---------------------------------------------------------------------------|


      e:-----------------------14b(16)--14-----------------------------------------|
      B:--13b(15)rb13--12(4x)---------------15~(2x)--------------------------------|
      G:---------------------------------------------------------------------------|
      D:------------------------------------------------------0--2--4-----------0--|
      A:------------------------------------------------0--2--------------0--2-----|
      E:---------------------------------------------3-----------------3-----------|


      e:---------------------------------------------------------------------------|
      B:------------------------------10--12---------------------------------------|
      G:-------------------9--11--12----------------------11--12--11--12--14--11~--|
      D:2--4----9--10--12---------------------11--12--14---------------------------|
      A:---------------------------------------------------------------------------|
      E:---------------------------------------------------------------------------|

      e:----------------------|
      B:|-Repeat-Chorus-|-End-|
      G:|---------------|-----|
      D:|---------------|-----|
      A:|---------------|-----|
      E:----------------------|
Comments