Helloween - Future World Chords & Tabs

 

Future World Chords & Tabs

Helloween Chords & Tabs

Version: 2 Type: Bass Tab 0 ratings
1 star 2 stars 3 stars 4 stars 5 stars
comments

Future World Bass Tab

"Future World" by Helloween
From the album "Keeper of the seven key I"
Transcribed by Abate Alessandro
For any comments or corrections please e-mail me at Sabbey@tin.it
 
 
 
                                     Intro
G-----------------------------------|---------------|---------------|---------------|--
D----Rest for approx. 5 seconds-----|---------------|---------------|---------------|--
A-----------------------------------|--5----5----5--|--8----8----8--|--3----3----3--|--
E-----------------------------------|---------------|---------------|---------------|--
 
G---------------|---------------|---------------|---------------|---------------|--
D---------------|---------------|---------------|---------------|---------------|--
A--5----5----5--|-3-3-4-5--5--5-|-5--5--5--5--5-|-8--8--8--8--8-|-8--8--8--3--3-|--
E---------------|---------------|---------------|---------------|---------------|--
 
G---------------|---------------|---------------|-------------|--
D---------------|---------------|---------------|-------------|--
A-3--3--3--3--3-|-3--5--5--5--5-|-5--5--5--5-3^-|-3^-3^-------|--
E---------------|---------------|---------------|--------10^\-|--
 
.....to Future World  1 Verse
G-------------------|--------------|---------------|---------------|---------------|--
D-------Rest--------|--------------|---------------|---------------|---------------|--
A-------------------|-3h5--5--5--5-|-1--1--1--1--5-|-5--5--5--1--1-|-1--1--5--5--5-|--
E-------------------|--------------|---------------|---------------|---------------|--
                                               Pre-Chorus
G---------------|-----------------|---------------|--------------|--
D---------------|-----------------|---------3-3-3-|-5--5--5--7h8-|--
A-5--1--1--1--1-|-(1)/-8--7--5--5-|-5--5--5-------|--------------|--
E---------------|-----------------|---------------|--------------|--
 
G--------------|----------------|----------------|------------|--
D-8--8--8-7--3-|-3--------------|-5--5--5-7h8--8-|-7--5^-(5)--|--
A--------------|----5--5--6-(6)-|----------------|------------|--
E--------------|----------------|----------------|------------|--
 
G-------------|------------|--------------|--------------|------------|--
D-5-3-5--5--4-|-3----------|-5--5--5--7h8-|-8--8--8-7--3-|-3----------|--
A-------------|----5--3----|--------------|--------------|----5--5--6-|--
E-------------|----------6-|--------------|--------------|------------|--
 
G-------------|------------------------|--
D-5--5--5-7h8-|-8--7--9--10---12^(12)\-|--
A-------------|------------------------|--
E-------------|------------------------|--
 
  Chorus
G--------------|---------------|---------------|--------------|--
D--------------|-3--3--3--3--5-|-5--3--3-------|----0-1--1--3-|--
A-0-1--1--3--3-|---------------|----------5--5-|-5------------|--
E--------------|---------------|---------------|--------------|--
 
G---------------|-----------------|--
D-3--1--1-------|-----------------|--
A----------1--1-|-3--3--3--3(3)\--|--
E---------------|-----------------|--
 
G--------------|--------------|------------|--------------|--
D--------------|-3--3--5-8--8-|-7--7-------|-1--1--3^(3)\-|--
A-0-1--1--3--3-|--------------|-------5--5-|--------------|--
E--------------|--------------|------------|--------------|--
 
G---------|---------------|---------------|---------------|---------------|--
D---------|---------------|---------------|---------------|---------------|--
A-5--5--5-|-5--5--5--5--5-|-8--8--8--8--8-|-8--8--8--3--3-|-3--3--3--3--3-|--
E---------|---------------|---------------|---------------|---------------|--
 
G----------------|---------------|-------|--
D----------------|---------------|-------|--
A--3--5--5--5--5-|-5--5--5--5-3^-|-3^-3^-|--
E----------------|---------------|-------|--
  2 Verse
G-----------------|---------------|--------------|-----------------|-3h4p3h4p3h4p3-|--
D-----------------|-----------6-5-|-6-8--6-5-----|-------------3h5-|---------------|--
A-----------5--7^-|-2--3-4-5------|----------6---|-------3-5-6-----|---------------|--
E-5--7-8-7--------|---------------|------------8-|-4--6------------|---------------|--
 
     .....to    Future     World              
G-----------------|-------------------|----------------|---------------|------------|--
D-7-6-5-----------|-------------------|----------------|---------------|------------|--
A-------------8^--|----7^------5^\----|-(3)/5--5--5--5-|-1--1--1--1--5-|-5--5--5--1-|--
E-----------------|-------------------|----------------|---------------|------------|--
                                               Pre-Chorus
G---------------|------------------|-----------------|---------------|--------------|--
D---------------|------------------|-----------------|---------3-3-3-|-5--5--5--7h8-|--
A-1--1--1--5--5-|-5--5--1--1--1--1-|-(1)/-8--7--5--5-|-5--5--5-------|--------------|--
E---------------|------------------|-----------------|---------------|--------------|--
 
G--------------|----------------|----------------|------------|--
D-8--8--8-7--3-|-3--------------|-5--5--5-7h8--8-|-7--5^-(5)--|--
A--------------|----5--5--6-(6)-|----------------|------------|--
E--------------|----------------|----------------|------------|--
 
G-------------|-------------|--------------|--------------|------------|--
D-5-3-5--5--4-|--3----------|-5--5--5--7h8-|-8--8--8-7--3-|-3----------|--
A-------------|-----5--3----|--------------|--------------|----5--5--6-|--
E-------------|-----------6-|--------------|--------------|------------|--
 
G-------------|------------------------|--
D-5--5--5-7h8-|-8--7--9--10---12^(12)\-|--
A-------------|------------------------|--
E-------------|------------------------|--
 
  Chorus
G--------------|---------------|---------------|--------------|--
D--------------|-3--3--3--3--5-|-5--3--3-------|----0-1--1--3-|--
A-0-1--1--3--3-|---------------|----------5--5-|-5------------|--
E--------------|---------------|---------------|--------------|--
 
G---------------|-----------------|--
D-3--1--1-------|-----------------|--
A----------1--1-|-3--3--3--3(3)\--|--
E---------------|-----------------|--
 
G--------------|--------------|------------|--------------|--
D--------------|-3--3--5-8--8-|-7--7-------|-1--1--3^(3)\-|--
A-0-1--1--3--3-|--------------|-------5--5-|--------------|--
E--------------|--------------|------------|--------------|--
 
  Interlude
G---------------|---------------|---------------|---------------|---------------|--
D---------------|----------1--1-|-1--1--1--1--1-|-1-------------|-------------1-|--
A-3--3--3--3--3-|-3--3--3-------|---------------|----3--3--3--3-|-3--3--3--3----|--
E---------------|---------------|---------------|---------------|---------------|--
 
G---------------|---------------|------------|--------------|--------------|--
D-1--1--1--1--1-|-1--1----------|------5-3---|--------------|--------------|--
A---------------|------------0--|--5^------3-|--5-3-0-------|--5^--3-2---2-|--
E---------------|---------------|------------|-----------5--|----------3---|--
 
G-------------|------------|------------|-----------------|--------------|--
D-----1-------|------5-3---|------------|-----------------|--------------|--
A-3-5------0--|--5^------3-|--5-3-0---0-|-0-0-0-0-0-0-0-0-|-0-3-3-3-3/5\-|--
E-------------|------------|------------|-----------------|--------------|--
 
  Guitar Solo
G---------------|---------------|-------------|----------------|---------------|--
D---------------|---------------|-4h5-4-------|----------------|---------------|--
A-7--7--7--7----|----------7--8-|-------5-3-1-|----------------|-------5--5--5-|--
E-------------5-|-5--5--5-------|-------------|--5--5--5--7--7-|-7--7----------|--
 
G---------------|-------------|--
D---------------|-------------|--
A-5--3--3--3--3-|-1--3--------|--
E---------------|-------2--0--|--
 
G---------------|---------------|------------|----------------|---------------|--
D---------------|---------------|-5-4--------|----------------|---------------|--
A-7--7--7--7----|----------7--8-|-----5-3-1--|----------------|-------5--5--5-|--
E-------------5-|-5--5--5-------|------------|--5--5--5--7--7-|-7--7----------|--
 
G---------------|-------------|--
D---------------|-------------|--
A-5--7--7--7--7-|-3--3--3--3--|--
E---------------|-------------|--
 
G---------------|---------------|------------|------------|--
D---------------|---------------|------------|-----5h7-5--|--
A-7--7--7--7--7-|-7--7--7--3--3-|-5--5--7--7-|-5-8--------|--
E---------------|---------------|------------|------------|--
 
G---------------|---------------|------------|------------|--
D---------------|---------------|------------|-5----------|--
A-7--7--7--7--7-|-7--7--7--3--3-|-5--5--7--7-|---7-5------|--
E---------------|---------------|------------|-------8-7--|--
 
  End Solo
G--------------|-----------------|--------------|-----------------|---------------|--
D-----------12-|---17^-----------|-----------12-|---17^-----------|---------------|--
A-12---15------|---------12---15-|--17--12------|---------12---15-|--17-----------|--
E--------------|-----------------|--------------|-----------------|-------3--5--6-|--
 
G-------------------|--
D-----------1--2--4-|--
A-4--5--7-----------|--
E-------------------|--
 
  Chorus
G--------------|---------------|---------------|--------------|--
D--------------|-3--3--3--3--5-|-5--3--3-------|----0-1--1--3-|--
A-0-1--1--3--3-|---------------|----------5--5-|-5------------|--
E--------------|---------------|---------------|--------------|--
 
G---------------|-----------------|--
D-3--1--1-------|-----------------|--
A----------1--1-|-3--3--3--3(3)\--|--
E---------------|-----------------|--
 
G--------------|--------------|------------|------------------|---1-3-4-|--
D--------------|-3--3--5-8--8-|-7--7-------|-1(1)--3------2-3-|-5-------|--
A-0-1--1--3--3-|--------------|-------5--5-|----------3-5-----|---------|--
E--------------|--------------|------------|------------------|---------|--
                                        Outro
G------------------|------------------|---------------|---------------|--
D-1(1)--3--5-3-2---|----------1(1)--3-|---------------|---------------|--
A----------------5-|-3-1--------------|-3--3--8--8--8-|-8--8--8--3--3-|--
E------------------|-----3-1----------|---------------|---------------|--
 
G---------------|---------------|---------------|------------|--
D---------------|---------------|---------------|----6(6)\---|--
A-8--8--8--8--8-|-8--3--3--8--8-|-8--8--8--8--3-|-3----------|--
E---------------|---------------|---------------|------------|--

[ Tab from: http://www.guitartabs.cc/tabs/h/helloween/future_world_btab_ver_2.html ]
Comments