Helloween - Doctor Stein Chords & Tabs

 

Doctor Stein Chords & Tabs

Helloween Chords & Tabs

Version: 1 Type: Bass Tab 0 ratings
1 star 2 stars 3 stars 4 stars 5 stars
comments

Doctor Stein Bass Tab

   
Dr. Stein by HELLOWEEN
-Bass Tab-

From album "Keeper Of The Seven Keys pat II"
Transcribed by André Baida from Brazil.
CounterParts HomePage: http://www.geocities.com/SunsetStrip/Lounge/5575
E-Mail: andrecp@bestway.com.br



Tune: E A D G

Intro and Vocals.                             
G------------------------------------------------------------------------
D-----------------------------------------------0-1--2-----------0-------
A-7-7-7-7-7-7-7-7--2-2-2-2-2-2-2-2--3-2-3-2-3-2--------------0-2---2-----
E------------------------------------------------------0-2-3-------------



G-------------------------------------------------------9-7-----------------
D-----------------------------------------------------------10-9-7----------
A-7-7-7-7-7-7-7-7--2-2-2-2-2-2-2-2--3-2-3-2-3-2---------------------10-9----
E-----------------------------------------------3-2--0----------------------

Bridge 1.
        
G-------------------------------------------------------------------
D-----------1--2-2-2-2---2-1----------4--5-5-5-5-5-5-5-5-5-5-5-5----
A-2-2-2-2-2------------2------5-5-5-5-------------------------------
E-------------------------------------------------------------------


G-----------------------------------------------------------------
D--------------5-5-5-5-5-5-5-5-5-5-5-5-------------------4-7------
A-3--3--3--3----------------------------5--5--5--5---5-7----------
E-----------------------------------------------------------------


G---------------------------------------------------------------
D-----------1--2-2-2-2---2-1----------4--5-5-5-5-5-5-5-4-2------
A-2-2-2-2-2------------2------5-5-5-5----------------------5----
E---------------------------------------------------------------


G-----------------------------------------------------
D---------------------------5--5--5--5----5-4---------
A-3--3--3--3---5--5--5--5---------------------7-5-----
E-----------------------------------------------------

Chorus 1.

G---------------------------------------------------
D---------------5-4---------------------5-4---------
A-3--3--5--5--------7-5---3--3--5--5--------7-5-----
E---------------------------------------------------

G---------------------------------------------------------
D---------------5-4---------------------------------------
A-3--3--5--5--------7-5---3-3-3-3-3-3-3-3---5--5--5--5----
E---------------------------------------------------------

G----------------------------------------------------------------------------------
D---------------------------------------------------------------5--5-4-------------
A-7-5-7-7-7-7-7-7-7-7--7-5-7-7-7-5-5-5-5-5-5--7-5-7-7-7-7-7-7-7--------7-5-5-5-5---
E----------------------------------------------------------------------------------

G----------------------------------------------------------------------------------
D---------------------------------------------------------------5--5-4-------------
A-7-5-7-7-7-7-7-7-7-7--7-5-7-7-7-5-5-5-5-5-5--7-5-7-7-7-7-7-7-7--------7-5-5-5-5---
E----------------------------------------------------------------------------------



Repeat Vocals. 

Bridge 2.

G-------------------------------------------------------------------
D-----------1--2-2-2-2---2-1----------4--5-5-5-5-5-5-5-5-5-5-5-5----
A-2-2-2-2-2------------2------5-5-5-5-------------------------------
E-------------------------------------------------------------------


G-----------------------------------------------------------------
D--------------5-5-5-5-5-5-5-5-5-5-5-5-------------------4-7------
A-3--3--3--3----------------------------5--5--5--5---5-7----------
E-----------------------------------------------------------------


G---------------------------------------------------------------
D-----------1--2-2-2-2---2-1----------4--5-5-5-5-5-5-5-4-2------
A-2-2-2-2-2------------2------5-5-5-5----------------------5----
E---------------------------------------------------------------

[ Tab from: http://www.guitartabs.cc/tabs/h/helloween/doctor_stein_btab.html ]
G------------------------------------------
D---------------------------5--5--5--5-----
A-3--3--3--3---5--5--5--5------------------
E------------------------------------------

Chorus 2.

G---------------------------------------------------
D---------------5-4---------------------5-4---------
A-3--3--5--5--------7-5---3--3--5--5--------7-5-----
E---------------------------------------------------

G---------------------------------------------------------
D---------------5-4---------------------------------------
A-3--3--5--5--------7-5---3-3-3-3-3-3-3-3---5--5--5--5----
E---------------------------------------------------------

G------------------------------------------------------------------
D------------------------------------------------------------------
A-7-5-7-7-7-7-7-7-7-7--7-7-7-7-7-7-7-7-7-7-7-7--5-4-4-5--5-4-5-6---
E------------------------------------------------------------------

Solo - 4 X

G------------------------------------------------------------------------------------
D------------------------------------------------------------------------------------
A-7-7-7-7-7-7-7-7-7-7--2-2-2-2-2-2-2-2-2-2-2--2-2-2-2-2-2-2-2-2-2-2-2--2-2-2-2-2-2-2-
E------------------------------------------------------------------------------------

G------------------------------------------------------------------------------------
D-------------2-2-2-2-2-2-2-2-2-0-2--2-2-2-2-2-2-2-2-2-0-2--2-2-2-2-2-2-2-2-2-0-2----
A-2--1--0----------------------------------------------------------------------------
E----------3-------------------------------------------------------------------------

G---------------
D---------------
A-------0--1----
E-0--3----------


Repeat Vocals and Bridge 1.


Chorus 3.

G---------------------------------------------------
D---------------5-4---------------------5-4---------
A-3--3--5--5--------7-5---3--3--5--5--------7-5-----
E---------------------------------------------------

G---------------------------------------------------------
D---------------5-4---------------------------------------
A-3--3--5--5--------7-5---3-3-3-3-3-3-3-3---5--5--5--5----
E---------------------------------------------------------

G---------------------------------------------------
D---------------5-4---------------------5-4---------
A-3--3--5--5--------7-5---3--3--5--5--------7-5-----
E---------------------------------------------------

G---------------------------------------------------------
D---------------5-4---------------------------------------
A-3--3--5--5--------7-5---3-3-3-3-3-3-3-3---5--5--5--5----
E---------------------------------------------------------

G----------------------------------------------------------------------------------
D---------------------------------------------------------------5--5-4-------------
A-7-5-7-7-7-7-7-7-7-7--7-5-7-7-7-5-5-5-5-5-5--7-5-7-7-7-7-7-7-7--------7-5-5-5-5---
E----------------------------------------------------------------------------------

G----------------------------------------------------------------------------------
D---------------------------------------------------------------5--5-4-------------
A-7-5-7-7-7-7-7-7-7-7--7-5-7-7-7-5-5-5-5-5-5--7-5-7-7-7-7-7-7-7--------7-5-5-5-5---
E----------------------------------------------------------------------------------

G----------------------------------------------------------------------------------
D---------------------------------------------------------------5--5-4-------------
A-7-5-7-7-7-7-7-7-7-7--7-5-7-7-7-5-5-5-5-5-5--7-5-7-7-7-7-7-7-7--------7-5-5-5-5---
E----------------------------------------------------------------------------------

G----------------------------------------------------------------------------------
D---------------------------------------------------------------5--5-4-------------
A-7-5-7-7-7-7-7-7-7-7--7-5-7-7-7-5-5-5-5-5-5--7-5-7-7-7-7-7-7-7--------7-5-5-5-5---
E----------------------------------------------------------------------------------

G----------
D----------
A-7-5-7----
E----------



End.
Comments