Helloween - Anything My Mama Dont Like Chords & Tabs

 

Anything My Mama Dont Like Chords & Tabs

Helloween Chords & Tabs

Version: 2 Type: Bass Tab 0 ratings
1 star 2 stars 3 stars 4 stars 5 stars
comments

Anything My Mama Dont Like Bass Tab

Anything my Mama don't Like by Helloween
From album "The Time of the Oath"
Trascritta da Abate Alessandro
For any comments or corrections please e-mail me at Sabbey@tin.it


G------------------|----------------------|--------------------|--
D----------------7-|----------------------|--------------------|--
A--8-8-8-8-8-8-8---|-10-10-10-10-10-6-8-8-|-8-8-8--------------|--
E------------------|----------------------|--------9-9-9-9-9-9-|--

G-----------------|----------------------|-----------------------|--
D---------------7-|-10-10-10-10-10-------|-----------------------|--
A-8-8-8-8-8-8-8---|----------------6-8-8-|-8-8-8-----------------|--
E-----------------|----------------------|--------10-10-10-10-10-|--
                      1°Verse
G-------------|-5--4--2-/-------|-----------------|--------6--5--3-|----8--6--5--3-|--
D-------------|-----------3-3-3-|-3-3-3-3-3-------|----------------|-6-------------|--
A-3-3-3-3-3-3-|-----------------|-----------4-4-4-|-4-4-4----------|---------------|--
E-------------|-----------------|-----------------|----------------|---------------|--

G-----------------|----------------6--|--5--3-----8--6--5--3-|--
D-3-3-3-3-3-3-3-3-|-------------------|--------6-------------|--
A-----------------|-4-4-4-4-4-4-4-----|----------------------|--
E-----------------|-------------------|----------------------|--

G-----------------|----------------6--|--5--3-----8--6--5--3-|--
D-3-3-3-3-3-3-3-3-|-------------------|--------6-------------|--
A-----------------|-4-4-4-4-4-4-4-----|----------------------|--
E-----------------|-------------------|----------------------|--

G-----------------|----------------6--|--5--3-----8--6--5--3-|--
D-3-3-3-3-3-3-3-3-|-------------------|--------6-------------|--
A-----------------|-4-4-4-4-4-4-4-----|----------------------|--
E-----------------|-------------------|----------------------|--
 Pre-Chorus
 I'm the king of.....                                           I'm a slave of.....
G-----------------|-----------------|-----------------|-----------------|----------|--
D-----------------|-----------------|-----------------|-----------------|----------|--
A-6-6-6-6-6-6-6-6-|-6-6-4-4-4-4-4-4-|-------------8-8-|-8-8-8-8-6-6-6-6-|-6-6-6----|--
E-----------------|-----------------|-6-6-6-6-6-6-----|-----------------|-------7\-|--
 Chorus
 Anything my Mama.......
G------------------|----------------------|--------------------|--
D----------------7-|----------------------|--------------------|--
A--8-8-8-8-8-8-8---|-10-10-10-10-10-6-8-8-|-8-8-8--------------|--
E------------------|----------------------|--------9-9-9-9-9-9-|--

G-----------------|----------------------|--------------------------|--
D---------------7-|-10-10-10-10-10-------|--------------------------|--
A-8-8-8-8-8-8-8---|----------------6-8-8-|-8-8-8-----------------8\-|--
E-----------------|----------------------|--------10-10-10-10-10----|--
 2°Verse
G-----------------|----------------6--|--5--3-----8--6--5--3-|--
D-3-3-3-3-3-3-3-3-|-------------------|--------6-------------|--
A-----------------|-4-4-4-4-4-4-4-----|----------------------|--
E-----------------|-------------------|----------------------|--
[ Tab from: http://www.guitartabs.cc/tabs/h/helloween/anything_my_mama_dont_like_btab_ver_2.html ]
G-----------------|----------------6--|--5--3-----8--6--5--3-|--
D-3-3-3-3-3-3-3-3-|-------------------|--------6-------------|--
A-----------------|-4-4-4-4-4-4-4-----|----------------------|--
E-----------------|-------------------|----------------------|--
 Pre-Chorus
 I'm the king of.....                                           I'm a slave of.....
G-----------------|-----------------|-----------------|-----------------|---------|--
D-----------------|-----------------|-----------------|-----------------|---------|--
A-6-6-6-6-6-6-6-6-|-6-6-4-4-4-4-4-4-|-------------8-8-|-8-8-8-8-6-6-6-6-|-6-6-----|--
E-----------------|-----------------|-6-6-6-6-6-6-----|-----------------|-----7\2-|--
 Chorus
 Anything my Mama.......
G------------------|----------------------|--------------------|--
D----------------7-|----------------------|--------------------|--
A--8-8-8-8-8-8-8---|-10-10-10-10-10-6-8-8-|-8-8-8--------------|--
E------------------|----------------------|--------9-9-9-9-9-9-|--

G-----------------|----------------------|-----------------------|--
D---------------7-|-10-10-10-10-10-------|-----------------------|--
A-8-8-8-8-8-8-8---|----------------6-8-8-|-8-8-8-----------------|--
E-----------------|----------------------|--------10-10-10-10-10-|--

G-------------------|------------------|-------------|--
D-------4---5--3--5-|-3-----3-----3----|-3-----------|--
A-2--4--------------|----4-----5-----5-|----5--2-(2)-|--
E-------------------|------------------|-------------|--

G-------------------|------------------|-------------|--
D-------4---5--3--5-|-3-----3-----3----|-3-----------|--
A-2--4--------------|----4-----5-----5-|----5--2-(2)-|--
E-------------------|------------------|-------------|--

G-------------------|------------------|-----------|--
D-------8---9--7--9-|-7-----7-----7----|-7---------|--
A-6--8--------------|----8-----9-----9-|----9--6\--|--
E-------------------|------------------|-----------|--
 Guitar Solo
G-----------------|-----------------|-----------------|-------------5-|--
D-----------------|-----------------|-----------------|-------5-6-8---|--
A-3-3-3-3-3-3-3-3-|-3-3-3-3-0-0-0-0-|-0-0-0-0-0-0-0-0-|-5-7-8---------|--
E-----------------|-----------------|-----------------|---------------|--

G-----------------|-----------------|-----------------|---------------7-|--
D-----------------|-----------------|-----------------|--------7-8-10---|--
A-5-5-5-5-5-5-2-2-|-2-2-2-2-5-5-5-5-|-5-5-2-2-2-2-2-2-|-7-9-10----------|--
E-----------------|-----------------|-----------------|-----------------|--

G-----------------|------------------|-------------------|-------------------|--
D-----------------|----------------8-|--9--7--9--7-----7-|----7-----7--------|--
A-5-5-5-5-5-5-2-2-|-2-2-2-2--6--8----|--------------8----|-9-----9-----9--6\-|--
E-----------------|------------------|-------------------|-------------------|--

 I'm the king of.....                                           I'm a slave of.....
G-----------------|-----------------|-----------------|-----------------|----------|--
D-----------------|-----------------|-----------------|-----------------|----------|--
A-----------------|-----4-4-4-4-4-4-|-------------8-8-|-8-8-8-8-6-6-6-6-|-6-6-6----|--
E-----------------|-----------------|-6-6-6-6-6-6-----|-----------------|-------7\-|--
 Chorus
 Anything my Mama.......
G------------------|----------------------|--------------------|--
D----------------7-|----------------------|--------------------|--
A--8-8-8-8-8-8-8---|-10-10-10-10-10-6-8-8-|-8-8-8--------------|--
E------------------|----------------------|--------9-9-9-9-9-9-|--

G-----------------|----------------------|--------------------------|--
D---------------7-|-10-10-10-10-10-------|--------------------------|--
A-8-8-8-8-8-8-8---|----------------6-8-8-|-8-8-8-----------------8\-|--
E-----------------|----------------------|--------10-10-10-10-10----|--

Repeat until the end..............





Comments