Hellogoodbye - Call N Return Chords & Tabs

 

Call N Return Chords & Tabs

Hellogoodbye Chords & Tabs

Version: 1 Type: Bass Tab

Call N Return Bass Tab

Intro
G|-------------------------------------------|
D|----4h7-4-4---------------4h7-4-4----------|
A|-5-------7--55-5/777----5------7--55-5-----|
E|-------------------------------------------| x4

Verse
G|-----------------|
D|-----------------|
A|---------555/77--|
E|-5-5-5-----------| x4

No Bass 0:34-0:45

Intro Again
G|----------------------------------------|
D|---4h7-4-4-55------------4h7-4-4--------|
A|-5------7--55-5/777----5------7--55-5---|
E|----------------------------------------| x2
[ Tab from: http://www.guitartabs.cc/tabs/h/hellogoodbye/call_n_return_btab.html ]
Verse
G|-----------------|
D|-----------------|
A|---------555/77--|
E|-5-5-5-----------| x4

No Bass 1:06-1:18

Chrous 2
G|---------------------|
D|---------------------|
A|-0-0--0-0--5-5--5-5--|
E|---------------------| x2

Bridge
G|---7-------4----7----|
D|----2-0--------------|
A|-5-------2-2--5-5----|
E|---------------------| x7

Chorus 2
G|---------------------|
D|---------------------|
A|-0-0--0-0--5-5--5-5--|
E|---------------------| x3

Ending
G|-------------------------|
D|-------------------474---|
A|-0-0--0-0--5-5--5-5--5--|
E|-------------------------|