Hella - Brown Metal Chords & Tabs

 

Brown Metal Chords & Tabs

Hella Chords & Tabs

Version: 1 Type: Tab 0 ratings
1 star 2 stars 3 stars 4 stars 5 stars
comments

Brown Metal Tab

   
Brown Metal
by Seim and Hill
tab in progress by Alfaro

Biggest challenge here is to keep a constant steady tremelo picking
while switching between the strings.
A good exercise for noobies.


Riff A
g----------------------------------------------------------|
d-------------------------------------14-14-14-14-14-14-14-|
a-12-12-12-12-12-12-12-12-12-12-12-12----------------------|
E----------------------------------------------------------|
                                                       x3

g----------------------------------------------------------|
d-------------------------------------13-13-13-13-13-13-13-|
a-12-12-12-12-12-12-12-12-12-12-12-12----------------------|
E----------------------------------------------------------|
  After repeating a bunch of times glissando down to   x1
  open string.
[ Tab from: http://www.guitartabs.cc/tabs/h/hella/brown_metal_tab.html ]
Riff B
g-------------------------------------------------|
d-------------------------------------2-2-----2-2-|
a-0-0-0-0-0-0-0-0-0-0-0-0-0-0-0-0-0-0-----0-0-----|
E-------------------------------------------------|

g-------------------------------------------------|
d-------------------------------------1-1-----1-1-|
a-0-0-0-0-0-0-0-0-0-0-0-0-0-0-0-0-0-0-----0-0-----|
E-------------------------------------------------|

Interlude C
g-----------------------------------------------------|
d-----------------------------------------------------|
a-0-------------0-------------0--------0--0--0--0--0--|
E-----------------------------------------------------|
  Bang on open string hard, let ring.

Riff D
g---------------------------------------------------------------------------------------|
d---------------------------------------------------------------------------------------|
a-0-0-0-0-0--0--0--0--0--0---0---0---0---0---0----0----0----0-----0-----0------0------0-|
E---------------------------------------------------------------------------------------|
  Just keep slowing down until all momentum is dead and gone.
Comments