Hell Is For Heroes - You Drove Me To It Chords & Tabs

 

You Drove Me To It Chords & Tabs

Hell Is For Heroes Chords & Tabs

Version: 3 Type: Tab 0 ratings
1 star 2 stars 3 stars 4 stars 5 stars
comments

You Drove Me To It Tab

This is just the basic riff and i tabbed it cos its fun to play

Tuning is drop D

e---------------------------------------------------------------
b---------------------------------------------------------------
g---------------------------------------------------------------
d-12-----------12-12-----------12-12-----------12-12---10-------
a-12---9h10----12-12---9h10----12-12---9h10----12-12---10-------
D-12-----------12-12-----------12-12-----------12-12---10-------
         pm    .  .            .   .            .  .  
[ Tab from: http://www.guitartabs.cc/tabs/h/hell_is_for_heroes/you_drove_me_to_it_tab_ver_3.html ]
e---------------------------------------------------------------
b---------------------------------------------------------------
g---------------------------------------------------------------
d-12-----------12-12-----------12-12-----------12-12---10-------
a-12---9h10----12-12---9h10----12-12---9h10----12-12---10-------
D-12-----------12-12-----------12-12-----------12-12---10-------
         pm    .  .            .   .            .  .  

e---------------------------------------------------------------
b---------------------------------------------------------------
g---------------------------------------------------------------
d-12-----------12-12-----------12-12-----------12-12---10-------
a-12---9h10----12-12---9h10----12-12---9h10----12-12---10-------
D-12-----------12-12-----------12-12-----------12-12---10-------
         pm    .  .            .   .            .  .  

e---------------------------------------------------------------
b---------------------------------------------------------------
g---------------------------------------------------------------
d-12-----------12-12-----------12-12-----------12-12---10-------
a-12---9h10----12-12---9h10----12-12---9h10----12-12---10-------
D-12-----------12-12-----------12-12-----------12-12---10-------
         pm    .  .            .   .            .  .  

just repeat it

Tabbed by Chinky
Comments