Hell Is For Heroes - You Drove Me To It Chords & Tabs

 

You Drove Me To It Chords & Tabs

Hell Is For Heroes Chords & Tabs

Version: 2 Type: Tab 0 ratings
1 star 2 stars 3 stars 4 stars 5 stars
comments

You Drove Me To It Tab

artist - hell  is for heroes
song - you drove me to it
tuning - drop D
tabed by - stee
e-mail - steetus@hotmail.com


i tabed this before... but the chorus was ...wrong..and the outro was.. so i retabed it...
(the first one was my tab... i'm not one of those annoying ppl who rip of everyones tabs...)



intro and verse

--------------------------------------------------------------
--------------------------------------------------------------
--------------------------------------------------------------
-----------------------------------10-------------------------
--0--9h10------9h10-----9h10-------10-------------------------
--0--------0-0------0-0------0-0---10-------------------------
pm         ...      ...      ...

guitar one  does this once then 2 more times with guitar 2



fill 1
----------------------------
----------------------------
----------------------------   x2   
5-5--------5-5--------------           *= play as harmonic
5-5--------5-5--------------
5-5--555---5-5-5555-5-5-----

     ***       **** * *      



then you play this before the chorus

--------------------------------------------------------------
--------------------------------------------------------------
--------------------------------------------------------------
-----------------------------------10-------------------------
--0--9h10------9h10-----9h10-------10-------------------------
--0--------0-0------0-0------0-0---10-------------------------
pm         ...      ...      ...


--------------------------------------------------------------
--------------------------------------------------------------
--------------------------------------------------------------
--------------------------------------------------------------
--0--9h10------9h10-----9h10----------------------------------
--0--------0-0------0-0------0-0---(then do a pick slide)-----



chorus

both guitars

----------------------------------------------------------
----------------------------------------------------------
----------------------------------------------------------
--0-0-0--0--12x-9-9-x--5-5-5x-5-5/7---5-------------------
--0-0-0--0--12x-9-9-x--5-5-5x-5-5/7---5-------------------
--0-0-0--0--12x-9-9-x--5-5-5x-5-5/7---5-------------------
pm  ...                ...



bridge


play after 2nd chorus

[ Tab from: http://www.guitartabs.cc/tabs/h/hell_is_for_heroes/you_drove_me_to_it_tab_ver_2.html ]
-----------------------------------------------------------
-----------------------------------------------------------
-----------------------------------------------------------
-10-10-10--/-x-10-10-10--/-x-10-10-10-/-x-7777-5555--------
-10-10-10--/-x-10-10-10--/-x-10-10-10-/-x-7777-5555--------
-10-10-10--/-x-10-10-10--/-x-10-10-10-/-x-7777-5555--------

play all of this a total of 3 times


bridge 2

-------------------------------------------------------------
-------------------------------------------------------------
-------------------------------------------------------------
-0------0-------0-------0-10---------------------------------
-0------0-------0-------0-10------X3-------------------------
-0------0-------0-------0-10---------------------------------


-------------------------------------------------------------
-------------------------------------------------------------
-------------------------------------------------------------
-0--0-0-0-0-0-0-0-0-0000-------------------------------------
-0--0-0-0-0-0-0-0-0-0000-------------------------------------
-0--0-0-0-0-0-0-0-0-0000-------------------------------------
  pm....................



then for the outro , guitar one plays chorus, whgile guitar two does this.................			


-------------------------------------------------------------
-------------------------------------------------------------
-7-7-7-7-7-7-7-7-7-7-7-7-7-7-6-6-----------------------------
------------------------------------X2-----------------------
-5-5-5-5-5-5-5-5-5-5-5-5-5-5-4-4-----------------------------
-------------------------------------------------------------


--------------------------------------------------------------------------------------
--------------------------------------------------------------------------------------
-7-7-7-7-7-7-7-7-7-7-7-7-7-7-9-9-9-9-9-111111111111111111111111111-12-12-12-12-12-12--
-x-x-x-x-x-x-x-x-x-x-x-x-x-x-x-x-x-x-x-x-x-x-x-x-x-x-x-x-x-x-x-x-x-x--x--x--x--x--x---
-5-5-5-5-5-5-5-5-5-5-5-5-5-5-7-7-7-7-7-9-9-9-9-9-9-9-9-9-9-9-9-9-9-10-10-10-10-10-10--
--------------------------------------------------------------------------------------


---------------------------------------------------------------------------------------
---------------------------------------------------------------------------------------
-111111111111111111111111111-12-12-12-12-12-12--11111111111111111111111-9-9-9-7-7-7----
-x-x-x-x-x-x-x-x-x-x-x-x-x-x-x--x--x--x--x--x---x-x-x-x-x-x-x-x-x-x-x-x-x-x-x-x-x-x----
-9-9-9-9-9-9-9-9-9-9-9-9-9-9-10-10-10-10-10-10--9-9-9-9-9-9-9-9-9-9-9-9-7-7-7-5-5-5----
---------------------------------------------------------------------------------------




then end....


you'll have to listen to the song alot......

enjoy

stee...
Comments