Hell Is For Heroes - You Drove Me To It Chords & Tabs

 

You Drove Me To It Chords & Tabs

Hell Is For Heroes Chords & Tabs

Version: 1 Type: Tab 0 ratings
1 star 2 stars 3 stars 4 stars 5 stars
comments

You Drove Me To It Tab

artist - hell  is for heroes
song - you drove me to it
tabbed by - stee
tuning - drop D



intro and verse

--------------------------------------------------------------
--------------------------------------------------------------
--------------------------------------------------------------
-----------------------------------10-------------------------
--0--9h10------9h10-----9h10-------10-------------------------
--0--------0-0------0-0------0-0---10-------------------------
pm         ...      ...      ...

guitar one  does this once then 2 more times with guitar 2



fill 1
--------------------------------------
--------------------------------------
--------------------------------------
5-5--------5-5-5--5--------5-5-5--5---    *= play as harmonic
5-5--------5-5-5--5--------5-5-5--5---
5-5--555--x5x5x5--5--555--x5x5x5--5---  
     ***             ***

then play the verse 4 times then the fill once

then the same  (verse 4 times , fill one once)


then you play this before the chorus

--------------------------------------------------------------
--------------------------------------------------------------
--------------------------------------------------------------
-----------------------------------10-------------------------
--0--9h10------9h10-----9h10-------10-------------------------
--0--------0-0------0-0------0-0---10-------------------------
pm         ...      ...      ...


--------------------------------------------------------------
--------------------------------------------------------------
--------------------------------------------------------------
--------------------------------------------------------------
--0--9h10------9h10-----9h10----------------------------------
--0--------0-0------0-0------0-0---(then do a pick slide)-----



chorus

guitar 1


guitar 2 does an octave type thing,  that i havnt figured out yet?.....hmmm
[ Tab from: http://www.guitartabs.cc/tabs/h/hell_is_for_heroes/you_drove_me_to_it_tab.html ]
-------------------------------------------------------------
-------------------------------------------------------------
-------------------------------------------------------------
-0-0-0--0---0--0---0----5-5-5--5---5--5--5-------------------
-0-0-0x-0---0--0---0----5-5-5x-5---5--5--5-------------------
-0-0-0x-0---0--0---0----5-5-5x-5---5--5--5-------------------

play this twice


the back to the intro ect......


bridge


play after 2nd chorus


-------------------------------------------------------------
-------------------------------------------------------------
-------------------------------------------------------------
-10-10-10----------------------------x-7--7-7--5--5----------
-10-10-10-----------------------X3---x-7--7-7--5--5----------
-10-10-10-(slide down the neck)------x-7--7-7--5--5----------

play all of this a total of 3 times



play this after this


-------------------------------------------------------------
-------------------------------------------------------------
-------------------------------------------------------------
-0------0-------0-------0-10---------------------------------
-0------0-------0-------0-10------X3-------------------------
-0-x-x--0--x-x--0--x-x--0-10---------------------------------


then this

-------------------------------------------------------------
-------------------------------------------------------------
-------------------------------------------------------------
-0--0-0-0-0-0-0-0-0-0000-------------------------------------
-0--0-0-0-0-0-0-0-0-0000-------------------------------------
-0--0-0-0-0-0-0-0-0-0000-------------------------------------
  pm....................



then for the outro , guitar one plays chorus, whgile guitar two does this.................			


-------------------------------------------------------------
-------------------------------------------------------------
-7-7-7-7-7-7-7-7-7-7-7-7-7-7-6-6-----------------------------
------------------------------------X2-----------------------
-5-5-5-5-5-5-5-5-5-5-5-5-5-5-4-4-----------------------------
-------------------------------------------------------------

then

-------------------------------------------------------------
-------------------------------------------------------------
-7-7-7-7-7-7-7-7-7-7-7-7-7-7-9-9-----------------------------
------------------------------------X2-----------------------
-5-5-5-5-5-5-5-5-5-5-5-5-5-5-7-7-----------------------------
-------------------------------------------------------------

then end....


you'll have to listen to the song alot......


stee...

  
Comments