Hell Is For Heroes - You Drove Me To It Chords & Tabs

 

You Drove Me To It Chords & Tabs

Hell Is For Heroes Chords & Tabs

Version: 1 Type: Bass Tab 0 ratings
1 star 2 stars 3 stars 4 stars 5 stars
comments

You Drove Me To It Bass Tab

   
Hell Is For Heroes - You Drove Me To It (bass)
Drop D Tuning (like virtually all of their songs)
Transcribed by Tim tims@bycommittee.com for info
I'm slowly tabbing HIFH songs, next comes Folded Paper Figures/Gravity/Inside/
Can't You Hear It/Out Of Sight/Always Remember Elvis (Three of Clubs)
Fucking brilliant song, this tab will work if you prefere playing the demo version

Verse: (method 1 (easier if you've got undisciplined fingers)
TEN is the tenth fret, and TWELVE is twelfth to stop confusion
h means hammer on
/ means slide down

G----------------------------------- x2
D-----------------------------------
A--9hTEN---9hTEN---9hTEN--9hTEN---3-
D-0------00------00------00-----00--

Verse: (method 2 (harder, but you only need one hand position)
[ Tab from: http://www.guitartabs.cc/tabs/h/hell_is_for_heroes/you_drove_me_to_it_btab.html ]
G----------------------------- x2
D--4h5---4h5---4h5---4h5------
A---------------------------3-
D-0----00----00----00----00---

This is the second part of the verse and works with both methods

G-----------------------
D-----------------------
A-----------------------
D-55-55-5555-55-55-5555-

When you play the verse part before the chorus comes in miss out the second verse part

Chorus:

G------------------------- x4
D-------------------------
A-----222--------000------
D-000-----7-5555-----5555-

Bridge:

G--------------------------------------------------------- x3
D---------------------------------------------------------
A--------------------------------------------------000----
D-TENTEN-TWELVE/1-TENTEN-TWELVE/1-TENTEN-TWELVE/1------555

G--------------- x5
D---------------
A-------------3-
D-00-00-00-00---

G--------
D--------
A--------
D-555555-

Structure:
Verse x4
Chorus x4
Verse x4
Chorus x4
Bridge x1
Chorus till end
Comments