Hell Is For Heroes - Three Of Clubs Chords & Tabs

 

Three Of Clubs Chords & Tabs

Hell Is For Heroes Chords & Tabs

Version: 2 Type: Tab 0 ratings
1 star 2 stars 3 stars 4 stars 5 stars
comments

Three Of Clubs Tab

Tabbed by:Me 
Email:Park_punk@hotmail.com

Tuning:Dadgbe

Guitar 1 riff 1 (Will i think )
e|---------------------------------------------------------------------------|
B|---------------------------------------------------------------------------|
G|---------------------------------------------------------------------------|
D|--------17-------17-------17---------14------14----14----------------------|
A|-----15-------15------------------15------15-------------------------------|
D|---15------15---------15--------0--------0-------0-------------------------|

Both Guitars: Verse
e|---------------------------------------------------------------------------|
B|---------------------------------------------------------------------------|
G|-1010101010101010----------------------------------------------------------|
D|-1010101010101010-----0-0-0-0-0-0-0-0-0------------------------------------|
A|--8-8-8-8-8-8-8-8-----0-0-0-0-0-0-0-0-0------------------------------------|
D|--0-0-0-0-0-0-0-0-----0-0-0-0-0-0-0-0-0------------------------------------|
[ Tab from: http://www.guitartabs.cc/tabs/h/hell_is_for_heroes/three_of_clubs_tab_ver_2.html ]
Both Guitars: Chorus 
e|---------------------------------------------------------------------------|
B|---------------------------------------------------------------------------|
G|---------------------------------------------------------------------------|
D|8-8-8-8-8-8-8-8-1010101010101010-00000000-1010101010101010-----------------|
A|8-8-8-8-8-8-8-8-1010101010101010-00000000-1010101010101010-----------------|
D|8-8-8-8-8-8-8-8-1010101010101010-00000000-1010101010101010-----------------|

Bridge Guitar1:
e|---------------------------------------------------------------------------|
B|---------------------------------------------------------------------------|
G|---------------------------------------------------------------------------|
D|------5--------5---------5--------5--------2--------2---------2--------2---|
A|----3---3----3---3-----3---3----3---3----3---3----3---3-----3---3----3---3-|
D|--3--------3---------3--------3--------0--------0---------0--------0-------|

Outro on Guitar 2 while guitar one just plays the chorus riff
e|---------------------------------------------------------------------------|
B|---------------------------------------------------------------------------|
G|-9s10-10-10-10-------------------------------------------------------------|
D|---------------------------------------------------------------------------|
A|-7s-8--8--8--8-------------------------------------------------------------|
D|---------------------------------------------------------------------------|

Structure:
Intro
Verse
Chrous
Intro
Verse
Chorus(twice aslong as the first Chorus)
Bridge
Chorus(play this along time, Also there is a time change at the end of the song
this is when guitar 2 plays that octave riff
Comments