Hell Is For Heroes - Kill The Silence Chords & Tabs

 

Kill The Silence Chords & Tabs

Hell Is For Heroes Chords & Tabs

Version: 2 Type: Tab 0 ratings
1 star 2 stars 3 stars 4 stars 5 stars
comments

Kill The Silence Tab

   
Band: Hell is for Heroes
Song: Kill the Silence
Album: You Drove me to it (Single)
Tabber: Iain Reilly

Verse (Guitar 2) x8
E|-----------------------------------------------------------------|
B|-----------------------------------------------------------------|
G|-7-7-7-7-7-7-7-7-7-7-7-7-7-7-7-7---------------------------------|
D|---------------------------------4-4-4-4-4-4-4-4-4-4-4-4-4-4-4-4-|
A|-----------------------------------------------------------------|
D|-----------------------------------------------------------------|
  Note: Third Time Guitar 1 Comes in

Verse (Guitar 1) x6 
E|-----------------------------------------------------------------|
B|-----------------------------------------------------------------|
G|-----------------------------------------------------------------|
D|-5-5-5-5-5-5-5-5-5-5-5-5-5-5-5-5-0-0-0-0-0-0-0-0-0-0-0-0-0-0-0-0-|
A|-5-5-5-5-5-5-5-5-5-5-5-5-5-5-5-5-0-0-0-0-0-0-0-0-0-0-0-0-0-0-0-0-|
E|-5-5-5-5-5-5-5-5-5-5-5-5-5-5-5-5-0-0-0-0-0-0-0-0-0-0-0-0-0-0-0-0-|

Chorus 1 (Guitar 1) x2
E|------------------------------------|
B|------------------------------------|
G|------------------------------------|
D|-0-8-8-8--0-8-8-8--0-8-8-8--0-8-8-8-|
A|-0-8-8-8--0-8-8-8--0-8-8-8--0-8-8-8-|
E|-0-8-8-8--0-8-8-8--0-8-8-8--0-8-8-8-|
PM .        .        .        .

E|-------------------------------------------------|
B|-------------------------------------------------|
G|-------------------------------------------------|
D|-0-0-0-0-0-0-0-0-0-0-0-0-0-0-0-0-0-0-0-0-0-0-0-0-|
A|-0-0-0-0-0-0-0-0-0-0-0-0-0-0-0-0-0-0-0-0-0-0-0-0-|
E|-0-0-0-0-0-0-0-0-0-0-0-0-0-0-0-0-0-0-0-0-0-0-0-0-|
PM . .   . .   . .   . .   . .   . .   . .   . .

Chorus 1 (Guitar 2) x2
E|------------------------------------|
B|------------------------------------|
G|------------------------------------|
D|-0-8-8-8--0-8-8-8--0-8-8-8--0-8-8-8-|
A|-0-8-8-8--0-8-8-8--0-8-8-8--0-8-8-8-|
E|-0-8-8-8--0-8-8-8--0-8-8-8--0-8-8-8-|
PM .        .        .        .
[ Tab from: http://www.guitartabs.cc/tabs/h/hell_is_for_heroes/kill_the_silence_tab_ver_2.html ]
E|---------------------------------------------------------------------------|
B|---------------------------------------------------------------------------|
G|-10-10-10-10-10-10-10-9-9-9-9-9-9-9-9-10-10-10-10-10-10-10-9-9-9-9-9-9-9-9-|
D|--x--x--x--x--x--x--x-x-x-x-x-x-x-x-x--x--x--x--x--x--x--x-x-x-x-x-x-x-x-x-|
A|--8--8--8--8--8--8--8-7-7-7-7-7-7-7-7--8--8--8--8--8--8--8-7-7-7-7-7-7-7-7-|
E|---------------------------------------------------------------------------|
  Note: Yes there is 7 8x10's not 8.

Verse (Guitar 2) x5 (Second Time Guitar 1 Comes in)
Verse (Guitar 1) x4
Chorus 2 (Guitar 1) x2 
  Note: Same as Chorus 1

Chorus 2 (Guitar 2)
E|------------------------------------|
B|------------------------------------|
G|------------------------------------|
D|-0-8-8-8--0-8-8-8--0-8-8-8--0-8-8-8-|
A|-0-8-8-8--0-8-8-8--0-8-8-8--0-8-8-8-|
E|-0-8-8-8--0-8-8-8--0-8-8-8--0-8-8-8-|
PM .        .        .        .

E|--------------------------------------------------|
B|--------------------------------------------------|
G|-10-10-10-10-10-10-10-10/12-12-12-12-12-12-12-12/-|
D|--x--x--x--x--x--x--x--x/-x--x--x--x--x--x--x--x/-|
A|--8--8--8--8--8--8--8--8/10-10-10-10-10-10-10-10/-|
E|--------------------------------------------------|

E|-------------------------------------------------|
B|-------------------------------------------------|
G|-14-14-14-14-14-14-14-14-15/15-15-15-15-15-15-15-|
D|--x--x--x--x--x--x--x--x--x/-x--x--x--x--x--x--x-|
A|-12-12-12-12-12-12-12-13-12/13-13-13-13-13-13-13-|
E|-------------------------------------------------|

Fill (Guitar 2) x1
E|-----------------|
B|-----------------|
G|-7-7-7-7-7-7-7-7-|
D|-----------------|
A|-----------------|
E|-----------------|

Verse (Guitar 2) x7

  With...

Interlude (Guitar 1) x7
E|-----------------------------------------------------------------|
B|-----------------------------------------------------------------|
G|-7-7-7-7-7-7-7-7-7-7-7-7-7-7-7-7---------------------------------|
D|-7-7-7-7-7-7-7-7-7-7-7-7-7-7-7-7-4-4-4-4-4-4-4-4-4-4-4-4-4-4-4-4-|
A|-5-5-5-5-5-5-5-5-5-5-5-5-5-5-5-5-4-4-4-4-4-4-4-4-4-4-4-4-4-4-4-4-|
E|---------------------------------4-4-4-4-4-4-4-4-4-4-4-4-4-4-4-4-|

Fill 2 (Guitar 1) x1
E|---------------------------------|
B|---------------------------------|
G|---------------------------------|
D|-4-4-4-4-4-4-4-4-4-4-4-4-4-4-4-4-|
A|-4-4-4-4-4-4-4-4-4-4-4-4-4-4-4-4-|
E|-4-4-4-4-4-4-4-4-4-4-4-4-4-4-4-4-|

Fill 2 (Guitar 2) x1
E|---------------------------------|
B|---------------------------------|
G|---------------------------------|
D|-4-4-4-4-4-4-4-4-4-4-4-4-4-4-4-4-|
A|---------------------------------|
E|---------------------------------|

Chorus 2 (Guitar 1) x4
Chorus 2 (Guitar 2) x4
Comments