Hell Is For Heroes - I Can Climb Mountains Chords & Tabs

 

I Can Climb Mountains Chords & Tabs

Hell Is For Heroes Chords & Tabs

Version: 2 Type: Tab 0 ratings
1 star 2 stars 3 stars 4 stars 5 stars
comments

I Can Climb Mountains Tab

Hell Is For Heroes – I Can Climb Mountains

Tabbed By Jimmy Neutron  
Intro
E--------------------------
B--------------------------
G--------------------------
D-----5--5--5----9--9--9---
A----5--5--5----9--9--9----
D---5--5--5----9--9--9----- X2
Played as Harmonics

Verse
E----------------------------------------
B----------------------------------------
G----------------------------------------
D--0-0-0-0---9-9-9-9---4-4-4-4---9-9-9-9-
A--0-0-0-0---9-9-9-9---4-4-4-4---9-9-9-9-
D--0-0-0-0---9-9-9-9---4-4-4-4---9-9-9-9-
    X4                  X4
     
Play the verse through 4 times

Chorus
E------------------------------------------
B------------------------------------------
G------------------------------------------
D--5-5-5-5---9-9-9-9---5-5-5-5---9-9-9-9---
A--5-5-5-5---9-9-9-9---5-5-5-5---9-9-9-9---
D--5-5-5-5---9-9-9-9---5-5-5-5---9-9-9-9---
[ Tab from: http://www.guitartabs.cc/tabs/h/hell_is_for_heroes/i_can_climb_mountains_tab_ver_2.html ]
E-----------------------------------------
B-----------------------------------------
G-----------------------------------------
D--5-5-5-5---0-0-0-0---5-5-5-5---0-0-0-0--
A--5-5-5-5---0-0-0-0---5-5-5-5---0-0-0-0--
D--5-5-5-5---0-0-0-0---5-5-5-5---0-0-0-0--
Play the whole Chorus through twice
Break/Bridge
E------------------------------------------
B------------------------------------------
G------------------------------------------
D--8-8-8-8--0-0-8-0------5-5-5-5-5-5-5-5---
A--8-8-8-8--0-0-8-0------5-5-5-5-5-5-5-5---
D--8-8-8-8--0-0-8-0------5-5-5-5-5-5-5-5---
     X7

E---------------------
B---------------------
G---------------------
D--7-7-7-7-7-7-7-7----
A--7-7-7-7-7-7-7-7----
D--7-7-7-7-7-7-7-7----

‘New’ verse
E------------------------
B------------------------
G--7-7-7-7---------------
D--7-7-7-7---4-4-4-4-----
A--5-5-5-5---4-4-4-4-----
D------------4-4-4-4-----
  Play x3     Play x3
Play the whole of the new verse through 4 times

For the Outro Play the Chorus twice then at the end play
E---------------
B---------------
G---------------
D--5-5-5-5---0--
A--5-5-5-5---0--
D--5-5-5-5---0--



This is my first ever tab!!! So please go easy on me. The order of the song is:

Intro             This song rules and so do
Verse             Hell is for Heroes! Hope  
Chorus            you enjoy it 
Verse
Chorus
Break/Bridge
‘New’ Verse
Chorus                  
Outro      

Comments