Hell Is For Heroes - I Can Climb Mountains Chords & Tabs

 

I Can Climb Mountains Chords & Tabs

Hell Is For Heroes Chords & Tabs

Version: 1 Type: Tab 0 ratings
1 star 2 stars 3 stars 4 stars 5 stars
comments

I Can Climb Mountains Tab



artist - Hell is for heroes
song - I can climb mountins
tuning - drop D (DADGBe)
tabbed by - stee tee
e - mail - steetus@hotmail.com


You'l need no effects for this song... maby a distortion could come in handy tho.....


fig 1

e--------------------------------------------
B--------------------------------------------
G--------------------------------------------
D------5-----5----5-------4------4---4-------  x2 on its own , then twice with guitar two playing fig 2
A----5-----5-----5------4------4----4--------
D--5-----5------5-----4------4-----4---------

All these notes are harmonis.... is u dont know wat they are.... 
should u realy be playing guitar ?....


fig 2

e----------------------------------------------
B----------------------------------------------
G----------------------------------------------
D----------------------------------------------
A-----------------22-----------------22--------
D-00000000-000000----44444444-444444-----------
pm......................................


both guitars play fig 2 for the verse....slight change on the last time...sure u can figure it out



chourus

guitar 1

e---------------------------------------------------------
B---------------------------------------------------------
G-4-4-4-6-6-6-6/7--4-4-4-6-6-6-6/7----9-9-9/11-11--11-----
D-xxx-x-xxx-x-x-x--xxx-x-xxx-x-x-x----x-xxx-x--x-x-x------
A-2x2-2-4x4-4-4/5--2x2-2-4x4-4-4/5----7-7X7/9--9-X-9------
D---------------------------------------------------------


guitar 2 
[ Tab from: http://www.guitartabs.cc/tabs/h/hell_is_for_heroes/i_can_climb_mountains_tab.html ]
e------------------------------------------------------------------
B------------------------------------------------------------------
G--------44-44-----------44-44-------------------------------------
D-5-5-5--44-44----5-5-5--44-44----2-2-2x-0-0-0--2-2-2x-0-0-0-------
A-5-5-5--22x22----5-5-5--22x22----2-2-2x-0-0-0--2-2-2x-0-0-0-------
D-5x5x5-----------5x5x5-----------2-2-2x-0-0-0--2-2-2x-0-0-0-------


bridge

guitar 1+2

e----------------------------------------------------------------------------
B----------------------------------------------------------------------------
G----------------------------------------------------------------------------
D-8--8-8-8-----88-----8--8-8-8-----8-8----8--8-8-8-----88------7-7-7-7-7777--
A-8--8-8-8-----88-----8--8-8-8-----88-----8--8-8-8-----88------5-5-5-5-5555--
D-8x-8-8-8-0-0-88-0---8x-8-8-8-0-0-88-0---8x-8-8-8-0-0-88-0----5-5-5-5-5555--


bridge 2	

guitar 1

e-----------------------------------------------------
B-----------------------------------------------------
G-11--1111--1111111---13-13-13--13-13-14-14-13--------
D-X-X-X-X-X-X-X-X-X---X--X--X-X-X--X--X--X--X---------
A-9-X-9-9-X-9-9-9-9---11-11-11X-11-11-12-12-11--------
D-----------------------------------------------------


Guitar 2 

e----------------------------------------------
G----------------------------------------------
B----------------------------------------------
D-0-0-0X-0-0-0X-0-0-0--4-4-4X-4-4-4X-4-4-------
A-0-0-0X-0-0-0X-0-0-0--4-4-4X-4-4-4X-4-4-------
D-0-0-0X-0-0-0X-0-0-0--4-4-4X-4-4-4X-4-4-------

ending....


guitar 1

e-----
B-----
G-11--
D-x---
A-9---
D-----

e----
B----
G-2--
D-0--
A-0--
D-0--

END

Any requests/comments/ or corrections.. send to my e-mail

stee














Comments