Heinz Rudolf Kunze - Sie Muessen Mich Nicht Moegen Chords & Tabs

 

Sie Muessen Mich Nicht Moegen Chords & Tabs

Heinz Rudolf Kunze Chords & Tabs

Version: 2 Type: Tab 0 ratings
1 star 2 stars 3 stars 4 stars 5 stars
comments

Sie Muessen Mich Nicht Moegen Tab

interpret:  Heinz Rudolf Kunze
titel:      Sie m?ssen mich nicht m?gen
album:      Halt!

Tabulatur von:------Henrik Hertel-----> henland@nexgo.de
(04.2001)

Intro:
e/-------------------------|
B/--1h2~-------------------|
G/-------------------------|
D/--------5---4---3-2------|
A/----------0---0-----(0)--|
E/-------------------------|

e/-------------------------|
B/--1h2~-------------------|
G/-------------------------|
D/--------5---4---3-2------|
A/----------0---0----------|
E/-------------------------|

e/------------------------------------------------|
B/--1h2~------------------------------------------|
G/------------------------------0-----------------|
D/--------5---4---3-2---------2-------0-----------|
A/----------0---0-----0-2-2-3-------2-------2-2-2-|
E/--------------------------------3------0--0-0-0-|


Nach 3 Minuten und 30 Sekunden folgt dann noch 5x das:
[ Tab from: http://www.guitartabs.cc/tabs/h/heinz_rudolf_kunze/sie_muessen_mich_nicht_moegen_tab_ver_2.html ]
e/-------------------------|
B/--1h2~-------------------|
G/-------------------------|
D/--------5---4---3-2------|
A/----------0---0-----(0)--|
E/-------------------------|

e/-------------------------|
B/--1h2~-------------------|
G/-------------------------|
D/--------5---4---3-2------|
A/----------0---0----------|
E/-------------------------|


Zeichenerkl?rung:  1h2~ bedeutet, dass sie hier "1" anschlagen und gleich ein paar
                                  mal mit einem anderen Finger auf "2" raufh?mmern.
                   (0)  bedeutet, diesen Ton h?rt man nur ein bisschen, deshalb kann
                                  er auch weggelassen werden.

Bei Fragen, oder wenn ihr ?ber HRK reden wollt oder
andere gute Tabs von ihm habt, dann mailt mir doch einfach:
henland@nexgo.de

F?r andere Tabs schaut nach unter:
http://home.nexgo.de/henland/GuitarMeadow.html

oder unter:
http://guitar-meadow.cool.am
Comments