Heifer - Mark Mark Chords & Tabs

 

Mark Mark Chords & Tabs

Heifer Chords & Tabs

Version: 1 Type: Tab 0 ratings
1 star 2 stars 3 stars 4 stars 5 stars
comments

Mark Mark Tab

   
Mark Mark
H E I F E R
Tabbed By Aaron Bridgeman (rokken@sicness.net)

http://bogans.arecool.net

   (this is my first full tab, 
  and not to be full of myself, 
   but it's absolutely spot on.
      It's not a hard song.) 

UPDATE! REAL LYRICS!

KEY: * = repeat sign
     ~ = sustain, dammit!!!
     . = PALM MUTE!
     x = Play with hand across strings

It's in drop d tuning (DADGBe)

RIFF 1
e|----------------------|-----------------|
B|----------------------|-----------------|
G|---------------------*|-----------------|
D|-0-0-3--0-3-0-3-xxxx-*|-0-0-5-0-5-0-3~~-|
A|-0-0-3--0-3-0-3-xxxx--|-0-0-5-0-5-0-3~~-|
D|-0-0-3--0-3-0-3-xxxx--|-0-0-5-0-5-0-3~~-|
      play 3 times        then this once
[ Tab from: http://www.guitartabs.cc/tabs/h/heifer/mark_mark_tab.html ]
RIFF 2
e|-----|    Words: poo-ying   And later: thai police
B|-----|           kon tai               mai dee
G|-----|           soo-ay                lork dtom
D|-0-0-|           mark mark             mark mark
A|-0-0-|
D|-0-0-|

RIFF 3
e|------------|-----------------|     Words: sa-wutdee krup
B|------------|-----------------|            sa-wutdee krup
G|-----------*|-----------------|            sa-wutdee krup
D|-0-0-3-0-3-*|-0-0-5-0-5-0-3~~-|            mai bpen rai
A|-0-0-3-0-3--|-0-0-5-0-5-0-3~~-|
D|-0-0-3-0-3--|-0-0-5-0-5-0-3~~-|
    play x3

RIFF 4
e|---------------------|
B|---------------------|
G|-------slide with----|
D|-0-0---hand and pick-|
A|-0-0-----------------|
D|-0-0-----------------|

RIFF 5
e|----------|
B|----------|
G|---------*|
D|-0-0-0-0-*|
A|-0-0-0-0--|
D|-0-0-0-0--|
pm . . . .

SONG STRUCTURE
RIFF 1 x4
RIFF 2 x8
RIFF 1 x2
RIFF 3 x2
RIFF 4 x4
RIFF 2 x8
RIFF 1 x2
RIFF 3 x2
RIFF 1 x2 NO xxxx Just Sustain
RIFF 4 x4
RIFF 6 Repeat for one verse
RIFF 1 x2
RIFF 3 x2
SUDDEN STOP

Comments