Heideroosjes - Sjonnie En Anita Chords & Tabs

 

Sjonnie En Anita Chords & Tabs

Heideroosjes Chords & Tabs

Version: 1 Type: Tab 0 ratings
1 star 2 stars 3 stars 4 stars 5 stars
comments

Sjonnie En Anita Tab

1:
e|--------------------------------|-----------------------------------|
B|--------------------------------|-----------------------------------|
G|------------5------------\------|-------------5---------------------|
D|----3-----5---------7---7-5-----|-----3-----5---------5-5---5-------|
A|--3-----3---------7-----------5-|---3-----3---------5-----------5---|
E|1---------------5-----------3---|-1---------------3-----------3---3-|
[ Tab from: http://www.guitartabs.cc/tabs/h/heideroosjes/sjonnie_en_anita_tab.html ]
2:
e|--------------------------------|------------------------------------|
B|--------------------------------|------------------------------------|
G|--------5-5-5-------------------|--------5---5-----------------------|
D|3---3---5-5-5-7---7-7-7-7-5-5-3-|3---3---5---5---5---5-5-5-5-5-5-5-3-|
A|3---3---3-3-3-7---7-7-7-7-5-5-3-|3---3---3---3---5---5-5-5-5-5-5-5-3-|
E|1---1---------5---5-5-5-5-3-3-1-|1---1-----------3---3-3-3-3-3-3-3-1-|
                              pm                       pm...........
3:
e|--------------------------------|------------------------------------|
B|--------------------------------|------------------------------------|
G|--------------------------------|------------------------------------|
D|3---3-3-3-3-3-3-3-3-3-3-3-3-3-3-|5---5-5-5-5-5-5-5-------------------|
A|3---3-3-3-3-3-3-3-3-3-3-3-3-3-3-|5---5-5-5-5-5-5-5-------------------|
E|1---1-1-1-1-1-1-1-1-1-1-1-1-1-1-|3---3-3-3-3-3-3-3-------------------|
      pm.........................      pm.........

Play no. 1 as intro and during the easy parts. When possible, try to play
it clean.
The 2nd part is with distortion and played during "Wij zijn...en frites"
The 3th part is with distortion and is played during "Ba ba ba baaa"
It's also the outro.

Comments