Heideroosjes - Regular Day In Bosnia Chords & Tabs

 

Regular Day In Bosnia Chords & Tabs

Heideroosjes Chords & Tabs

Version: 2 Type: Tab 0 ratings
1 star 2 stars 3 stars 4 stars 5 stars
comments

Regular Day In Bosnia Tab

Tab Regular day in Bosnia

Intro:
|-------------------------------|
|-------------------------------| 2x
|-------------------------------|
|---7----3--5-------7----3--2---|
|0---------------0--------------|
|-------------------------------|

|----------------------------------------------------|
|----------------------------------------------------| 2x
|----------------------------------------------------|
|---7----7--3--5--3-------7----7--3--2-------(-7-)---|
|0----0----------------0----0----------------(-0-)2th time|
|----------------------------------------------------|



Pro-chorus
|----------------------------------------------------|
|----------------------------------------------------|
|---------------------5--4---------------------------|
|-7----7----7----7----3--2---------------------------|
|-0----0----0----0-----------------------------------|
|----------------------------------------------------|


chorus
|----------------------------------------------------|
|----------------------------------------------------| 4x
|----------------------------------------------------|
|-7-7-7-7-7-7-7-7--3-3-3--5-5-5-5-5------------------|
|-7-7-7-7-7-7-7-7--3-3-3--5-5-5-5-5------------------|
|-5-5-5-5-5-5-5-5--1-1-1--3-3-3-3-3------------------|
                          ---------
                          3 3 3 3 3
                          3 3 3 3 3
The 3rd time play this:  1 1 1 1 1

[ Tab from: http://www.guitartabs.cc/tabs/h/heideroosjes/regular_day_in_bosnia_tab_ver_2.html ]
Female singing,  i don't know how to play??!?!?!??
Al those strange noise
|----------------------------------------------------|
|----------------------------------------------------|
|----------------------------------------------------|
|---7-7--7-?-?-?-?-?-?-?-?-?-?-?-?-?-?-?-?-?-?-?-?-?-|
|-0----0---?-?-?-?-?-?-?-?-?-?-?-?-?-?-?-?-?-?-?-?-?-|
|----------------------------------------------------|


And than repeat the Pro-chorus and the chorus.

Brige:
|----------------------------------------------------|
|----------------------------------------------------| 4x
|----------------------------------------------------|
|-7-7-7-7-7-7-7-7--3-3-3--2-2-2-2-2------------------|
|-7-7-7-7-7-7-7-7--3-3-3--2-2-2-2-2------------------|
|-5-5-5-5-5-5-5-5--1-1-1--0-0-0-0-0------------------|
P.M................................

then Chorus.

Brige 2:
|----------------------------------------------------|
|----------------------------------------------------| 3x
|----------------------------------------------------|
|-7>--------------7----------------------------------|
|-7>--------------7----------------------------------|
|-5>--------------5----------------------------------|

|----------------------------------------------------|
|----------------------------------------------------|
|----------------------------------------------------|
|-7--------7-7-7-7-7-7-7-7---------------------------|
|-7--------7-7-7-7-7-7-7-7---------------------------|
|-5--------5-5-5-5-5-5-5-5---------------------------|

Again the chorus.
Comments