Heideroosjes - Our Own Vietnam Chords & Tabs

 

Our Own Vietnam Chords & Tabs

Heideroosjes Chords & Tabs

Version: 1 Type: Bass Tab

Our Own Vietnam Bass Tab

   
Fig 1

   C  G  F F    G  F  E E
|------------------------------|
|------------------------------|
|--3---------------------------|   
|-----3--1-1111-3--1--0-0000---|

Fig 2
[ Tab from: http://www.guitartabs.cc/tabs/h/heideroosjes/our_own_vietnam_btab.html ]
    D  C  D  C  D  C  B
|-------------------------|
|---0-----0-----0---------|
|------3-----3-----3--2---| 
|-------------------------|

Fig 3

    E B        C    A G A G A G A
|------------------------------------|
|------------------------------------|
|-----22222222-3333-0---0---0---0----|
|---0-----------------3---3---3------|


Order :

Fig 1 2x
Fig 2 6x
Fig 1 2x
Fig 2 6x
Fig 1 2x
Fig 3 4x
Fig 1 2x
Fig 2 1x
Fig 1 4x

End with :

Shoot to kill !!!!