Heideroosjes - Opa Chords & Tabs

 

Opa Chords & Tabs

Heideroosjes Chords & Tabs

Version: 1 Type: Tab 0 ratings
1 star 2 stars 3 stars 4 stars 5 stars
comments

Opa Tab

De eerste keer speel je dit, 

E--------------------------------------------------------------|
B--------------------------------------------------------------|
G---------5----7----5------------------------------------------|
D---5----5-5--7-7--5-5-----------------------------------------|
A--5-5--3----5----3--------------------------------------------|
E-3------------------------------------------------------------|

en de tweede keer speel je dit.
[ Tab from: http://www.guitartabs.cc/tabs/h/heideroosjes/opa_tab.html ]
E--------------------------------------------------------------|
B--------------------------------------------------------------|
G---------5----7----7------------------------------------------|
D---5----5-5--7-7--7-7-----------------------------------------|
A--5-5--3----5----5--------------------------------------------|
E-3------------------------------------------------------------|

Refrijn:


E--------------------------------------------------|
B--------------------------------------------------|
G--------------5-5-5-5-------7-7-7-7-----5-5-5-5---|
D--5-5-5-5-----5-5-5-5-------7-7-7-7-----5-5-5-5---|
A--5-5-5-5-----3-3-3-3-------5-5-5-5-----3-3-3-3---|
E--3-3-3-3-----------------------------------------|


 
E------------------------------------------------|
B------------------------------------------------|
G---------------5-5-5-5-----7-7-7-7-7-7-7-7------|
D--5-5-5-5------5-5-5-5-----7-7-7-7-7-7-7-7------|
A--5-5-5-5------3-3-3-3-----5-5-5-5-5-5-5-5------|
E--3-3-3-3---------------------------------------|
 
Comments