Heideroosjes - Klapvee Chords & Tabs

 

Klapvee Chords & Tabs

Heideroosjes Chords & Tabs

Version: 1 Type: Bass Tab

Klapvee Bass Tab

A beatiful song to play on the bassguitar with a very nice riff in it
Many pleasure

Intro

---------------------------------------------------|
----33 -3--33-3--------------33-3--33-3------------|
-1----------------11-1--11-1 ----------------------|
---------------------------------------------------|


than the riff


--------------5-3-2----------2--3--5-------------------2-3-5----------------------------------------------------|
-----2-3-5----------5----3--------------------------3--------------------------2-3-5--0--1--2-------------------|
--3----------------------------------------0-1--3-------------------5-3--2--3-----------------------------------|
-----------------------------------------1------------------------3------------------------------------3-3-3-3--|
[ Tab from: http://www.guitartabs.cc/tabs/h/heideroosjes/klapvee_btab.html ]
than intro again

than the riff

chorus


----------------------------------------------------------------------------------|
----------------------------------------------------------------------------------|
----------------------3-3-3-3------------------------------------3-----3-------3--|
-1-1-1-1--5-5-5-5------------3-3-3-3---1-1-1-1--5-5-5-5---------------------------|

refrein


--------------------------------------------------------|
--------------------------------------------------------|
---------------------------------3-----3-----3----------|
-1---1---3-3-3-3- -5-5-5-5------------------------------|

bridge

-----------------------------------------|
------------------------------3----------|  4X
--------------------6--5-------3---------|
-3-3--5-5--6-6---------------------------|