Heideroosjes - Fistfuckparty At 701 Chords & Tabs

 

Fistfuckparty At 701 Chords & Tabs

Heideroosjes Chords & Tabs

Version: 2 Type: Tab 0 ratings
1 star 2 stars 3 stars 4 stars 5 stars
comments

Fistfuckparty At 701 Tab

Intro:

---------------------------------------------------
----9---10----9----7-------------------------------
--6----6----9----4--------------------------------- x2
---------------------------------------------------
---------------------------------------------------
---------------------------------------------------

Verse1:

---------------------------------------------------
--9xx9xx9--10xx10xx10--9xx9xx9--7xx7xx7------------
--6xx6xx6---6xx-6xx-6--9xx9xx9--4xx4xx4------------ x4
---------------------------------------------------
---------------------------------------------------
---------------------------------------------------

Pre-chorus:

---------------------------------------------------
--99999999-1010101010101010-99999999-77777777------
--66666666--6-6-6-6-6-6-6-6-99999999-44444444------ x2
---------------------------------------------------
---------------------------------------------------
---------------------------------------------------

Chorus:
[ Tab from: http://www.guitartabs.cc/tabs/h/heideroosjes/fistfuckparty_at_701_tab_ver_2.html ]
---------------------------------------------------
--9-10--9-12---9-10--9--4------on-the-end -----9~~-
--6--7--6--9---6--7--6--4--x2--of-the-last-----6~~- 
--6--7--6--9---6--7--6--7------time,-play:-----6~~-
---------------------------------------------------
---------------------------------------------------

Verse2: 

Same as Verse1

Pre-chorus

Chorus

Bridge:

---11-9-11-9-11~~---------11-9-11-9----------------
---------------------------------------------------
--------------------------------------------------- 
---------------------------------------------------
---------------------------------------------------
---------------------------------------------------

---------------------------------------------------
---4-2--4-2~--4-2--4-2~--4-2--4-2~--4~~------------
--------------------------------------------------- x2
---------------------------------------------------
---------------------------------------------------
---------------------------------------------------

Pre-chorus:

Chorus: x2

Outro:

-11-9~--11-9~--11-9~--11-9~--11-9~--11-9~--11-9~--11-9~--Fade out
-----------------------------------------------------------------
-----------------------------------------------------------------
-----------------------------------------------------------------
-----------------------------------------------------------------
-----------------------------------------------------------------
Comments