Heideroosjes - Da's Toch Dope Man! Chords & Tabs

 

Da's Toch Dope Man! Chords & Tabs

Heideroosjes Chords & Tabs

Version: 1 Type: Tab 1 rating
1 star 2 stars 3 stars 4 stars 5 stars
comments

Da's Toch Dope Man! Tab

Heideroosjes
Da's toch dope man!


Intro
   ----------------
   ----------------
   ------9-6-7-6-9-       4X
   --7-7-9-6-7-6-9-
   --7-7-7-4-5-4-7-
   --5-5-----------

Intro 2
   ---------------------------------
   ---------------------------------
   -----------7-7-7----------66---6-          2X
   --77777777-7-7-7-77777777-66-7-6- 
   --77777777-5-5-5-77777777-44-7-4-
   --55555555-------55555555----5---

Verse
   -------------------------------------------------------
   -------------------------------------------------------
   ------------7---7-----------7---7-----------7---7------         2X
   ----7---7---7---7---7---7---7---7---7---7---7---7-7----
   ----7---7-555-555---7---7-555-555---7---7-555-555-7----
   --555-555---------555-555---------555-555---------5----

Chorus
   ------------------------------------------------------------------
   ------------------------------------------------------------------
   ----------99999999666666667777777766666666--------6666666677777777
   --7777777799999999666666667777777766666666777777776666666677777777
   --7777777777777777444444445555555544444444777777774444444455555555
   --55555555--------------------------------55555555----------------

   ------------------------------------------------------------------
   ------------------------------------------------------------------
   66666666--------666666667777777766666666--------6666666677777777--
   6666666677777777666666667777777766666666777777776666666677777777--
   4444444477777777444444445555555544444444777777774444444455555555--
   --------55555555------------------------55555555------------------

Bridge (hand muted)
   --------------------
   --------------------
   -----------99999999-         2X
   --77777777-99999999-
   --77777777-77777777-
   --55555555----------

Verse

Intro tune
[ Tab from: http://www.guitartabs.cc/tabs/h/heideroosjes/das_toch_dope_man_tab.html ]
   ----------------
   ----------------
   ------9-6-7-6-9-       4X
   --7-7-9-6-7-6-9-
   --7-7-7-4-5-4-7-
   --5-5-----------

Rap solo
   ------------------------------------------------
   ------------------------------------------------
   --9-6-7-6-7-6-9-6-7-6-9-6-----------------------
   ------------------------------------------------
   ------------------------------------------------
   ------------------------------------------------

Rap solo 2
   ------------------------------------------------
   ------------------------------------------------
   --9-6-7-6-7-6-9-6-7-6-9-9-----------------------
   ------------------------------------------------
   ------------------------------------------------
   ------------------------------------------------

Chorus 2X
   ------------------------------------------------------------------
   ------------------------------------------------------------------
   ----------99999999666666667777777766666666--------6666666677777777
   --7777777799999999666666667777777766666666777777776666666677777777
   --7777777777777777444444445555555544444444777777774444444455555555
   --55555555--------------------------------55555555----------------

   ------------------------------------------------------------------
   ------------------------------------------------------------------
   66666666--------666666667777777766666666--------6666666677777777--
   6666666677777777666666667777777766666666777777776666666677777777--
   4444444477777777444444445555555544444444777777774444444455555555--
   --------55555555------------------------55555555------------------

End Chorus
   ------------------------------------------------
   ------------------------------------------------
   --------77777777--------99999999--------77777777
   777777777777777777777777999999997777777777777777
   777777775555555577777777777777777777777755555555
   55555555--------55555555--------55555555--------

Outro  (hand muted)
   ----------
   ----------
   ----------        
   -77777777-
   -77777777-
   -55555555-
Comments