Heideroosjes - Damclub Hooligan Chords & Tabs

 

Damclub Hooligan Chords & Tabs

Heideroosjes Chords & Tabs

Version: 1 Type: Bass Tab 0 ratings
1 star 2 stars 3 stars 4 stars 5 stars
comments

Damclub Hooligan Bass Tab

   
-------------------------------------------------------------------------------
			     Damclub Hooligan - Heideroosjes
-------------------------------------------------------------------------------

Tabbed By : Jan Van Gulck
e-mail:     janvangulck@hotmail.com

Tuning: Standard


Intro


G|--------------------------------|
D|--------------------------------|
A|----------5-5-----------5-5-----|
E|--5-5------------5-5------------|


2X

G|--------------------------------------------------------------------|
D|--------------------------------------------------------------------|
A|------------------5-5-5-5-5-5-5-5-----------------7-7-7-7-7-7-7-7---|
E|--5-5-5-5-5-5-5-5-----------------7-7-7-7-7-7-7-7-------------------|

Pre Verse

G|----------------------|
D|----------------------|
A|-------------5-5---5--|
E|--5-5---5-------------|


Verse

2X   							  1X

G|----------------------------------------------------|  |-----------|
D|----------------------------------------------------|  |-----------|
A|-------------5-5---5---------------7-7-7-7-7-7-7-7--|  |--7-7-7-7--|
E|--5-5---5---------------7-7---7---------------------|  |-----------|


Chorus

2X

G|--------------------------------------------------------------------|
D|--------------------------------------------------------------------|
A|------------------5-5-5-5-5-5-5-5-----------------7-7-7-7-7-7-7-7---|
E|--5-5-5-5-5-5-5-5-----------------7-7-7-7-7-7-7-7-------------------|


Pre Verse

G|--------------------------------|
D|--------------------------------|
A|----------5-5-----------5-5-----|
E|--5-5------------5-5------------|


Verse

2X                                                        1X

G|----------------------------------------------------|  |-----------|
D|----------------------------------------------------|  |-----------|
A|-------------5-5---5---------------7-7-7-7-7-7-7-7--|  |--7-7-7-7--|
E|--5-5---5---------------7-7---7---------------------|  |-----------|

ChOrus


2X
[ Tab from: http://www.guitartabs.cc/tabs/h/heideroosjes/damclub_hooligan_btab.html ]
G|--------------------------------------------------------------------|
D|--------------------------------------------------------------------|
A|------------------5-5-5-5-5-5-5-5-----------------7-7-7-7-7-7-7-7---|
E|--5-5-5-5-5-5-5-5-----------------7-7-7-7-7-7-7-7-------------------|


Interlude

G|---------------------------------------------------------------------------|
D|---------------------------------------------------------------------------|
A|---------------------------------------------------------------------------|
E|--3-5-5-5-5-5-5-5-3-5-5-5-5-5-5-5-3-5-5-5-5-5-5-5-3-5-5-5-5-5-5-5----------|

G|---------------------------------------------------------------------------|
D|---------------------------------------------------------------------------|
A|---------------------------------------------------------------------------|
E|--3-5-5-5-5-5-5-5-3-5-5-5-5-5-5-5-3-5-5-5-5-5-5-5-3-5-5-5-5-5-5-5----------|

G|---------------------------------------------------------------------------|
D|---------------------------------------------------------------------------|
A|---------------------------------------------------------------------------|
E|--3-5-5-5-5-5-5-5-3-5-5-5-5-5-5-5-3-5-5-5-5-5-5-5-3-5-5-5-5-5-5-5----------|

G|---------------------------------------------------------------------------|
D|---------------------------------------------------------------------------|
A|---------------------------------------------------------------------------|
E|--3-5-5-5-5-5-5-5-3-5-5-5-5-5-5-5-3-5-5-5-5-5-5-5-5-5-5-5-5-5-5-5----------|


Chorus

4X

G|--------------------------------------------------------------------|
D|--------------------------------------------------------------------|
A|------------------5-5-5-5-5-5-5-5-----------------7-7-7-7-7-7-7-7---|
E|--5-5-5-5-5-5-5-5-----------------7-7-7-7-7-7-7-7-------------------|


Outro

G|--------|
D|--------|
A|--------|
E|--5-5---|

| /  slide up
| \  slide down
| h  hammer-on
| p  pull-off
| ~  vibrato
| +  harmonic
| x  Mute note
===============================================================================
Comments