Hedley - Trip Chords & Tabs

 

Trip Chords & Tabs

Hedley Chords & Tabs

Version: 1 Type: Tab 0 ratings
1 star 2 stars 3 stars 4 stars 5 stars
comments

Trip Tab

   
----------------------------------------------------------------------------
			   Trip(Acoustic) - By Jacob Hoggard of Hedley
----------------------------------------------------------------------------
Song:Trip(Acoustic)
Artist:Jacob Hoggard of Hedley
Tabbed by:Kyle Wiese
Email:Canibus_55@hotmail.com

This is a great acoustic song from the lead singer of Hedley and the third place 
on Canadian idol, although he is probably one of the most talented idol contestants ever, 
American idol.  He performed this live, and my sister was a huge fan of his before me, so
she had a copy of it, I heard it a few times, and i loved it, so I decided to tab it out. I 
had to tab it because he is from Abbotsford, B.C, and I live in Surrey, which is about 20
minutes away, and it's good to see quality B.C and Canadian talent get recognized.

Everybody always says this is their first tab, it seems like every tab is a first tab, 
this really is the first tab i've ever wrote out, but i'm sure it is 100%, I put a lot
of into it. enjoy.

Tuning:(Standard) e A D G B e

(NOTE)strumming is approximate, not exact
(NOTE) At some points he lets the B and E strings ring out. It still sounds perfect
without it though

(INTRO)
e|--------------------------------------------------------------------------|
B|--------------------------------------------------------------------------|
G|9-9-9-9---9-9-9-9---9-9-9-9---9-9-9-9-------------------------------------|
D|9-9-9-9---9-9-9-9---9-9-9-9---9-9-9-9-------------------------------------|
A|7-7-7-7---6-6-6-7---x-x-x-x---x-x-x-x-------------------------------------|
E|----------7-7-7-----9-9-9-9---7-7-7-9-------------------------------------|

e|--------------------------------------------------------------------------|
B|--------------------------------------------------------------------------|
G|9-9-9-9---9-9-9-9---9-9-9-9---9-9-9-9-9-9-9-9-----------------------------|
D|9-9-9-9---9-9-9-9---9-9-9-9---9-9-9-9-9-9-9-9-----------------------------|
A|7-7-7-7---6-6-6-7---x-x-x-x---x-x-x-x-x-x-x-x-----------------------------|
E|----------7-7-7-----9-9-9-9---7-7-7-7-7-7-7-9-----------------------------|
[ Tab from: http://www.guitartabs.cc/tabs/h/hedley/trip_tab.html ]
(VERSE)same as intro, He just doesn't change chords at the end of the 2nd and 4th bar 
he does in the intro.
e|---------------------------------------------------------------------------|
B|---------------------------------------------------------------------------|
G|9-9-9-9---------9-9-9-9---------9-9-9-9---------9-9-9-9--------------------|
D|9-9-9-9---------9-9-9-9---------9-9-9-9---------9-9-9-9--------Repeat------| (x3)
A|7-7-7-7---------6-6-6-6---------x-x-x-x---------x-x-x-x--------------------|
E|----------------7-7-7-7---------9-9-9-9---------7-7-7-7--------------------|
  some say...    sinners...    true, 'cause...     sinning love came.....

(CHORUS)
e|--------------------------------------------------------------------------|
B|--------------------------------------------------------------------------|
G|9-9-9-9---------9-9-9-9---------9-9-9-9---------9-9-9-9-------------------|
D|9-9-9-9---------9-9-9-9---------9-9-9-9---------9-9-9-9-------------------|
A|7-7-7-7---------6-6-6-6---------x-x-x-x---------x-x-x-x-------------------|
E|----------------7-7-7-7---------9-9-9-9---------7-7-7-9-------------------|
  What are...    me, I'm so into you..

e|--------------------------------------------------------------------------|
B|--------------------------------------------------------------------------|
G|9-9-9-9---------9-9-9-9---------------------------------------------------|
D|9-9-9-9---------9-9-9-9---------11-11-11-11---7-7--7-7--------------------|
A|7-7-7-7---------6-6-6-6---------11-11-11-11---7-7--7-7--------------------|
E|----------------7-7-7-7---------9--9--9--9----5-5--9-9--------------------|
  It isn't easy you see...       youuuuuuuu...

(OUTRO)begins right after the second time he does the chorus
e|--------------------------------------------------------------------------|
B|--------------------------------------------------------------------------|
G|9-9-9-9---------9-9-9-9----------------------------------9----------------|
D|9-9-9-9---------9-9-9-9---------11-11-11-11----7-7--9-9--9----------------|
A|7-7-7-7---------6-6-6-6---------11-11-11-11----7-7--9-9--7----------------|
E|----------------7-7-7-7---------9--9--9--9-----5-5--7-7-------------------|

| /  slide up
| \  slide down
| h  hammer-on
| p  pull-off
| ~  vibrato
| +  harmonic
| x  Mute note
============================================================================
Comments