Hedley - On My Own Chords & Tabs

 

On My Own Chords & Tabs

Hedley Chords & Tabs

Version: 1 Type: Tab 0 ratings
1 star 2 stars 3 stars 4 stars 5 stars
comments

On My Own Tab

Hedley - On My Own Guitar Tab
by: James Melanson
Any comments: james@thelostwoods.com

My tunning is half step down...

Intro
eb----------5-----------|
bb-----7--5---7---5-----|
gb---7----------7-------|
Db------------------7---|
Ab----------------------|
Eb----------------------|

eb----------5-----------|
bb-----7--5---7---5-----|
gb---7----------7-------|
Db----------------------|
Ab----------------------|
Eb----------------------|

eb----------------------|
bb----------------------|
gb--7-------4-----------|
Db--7---7---4---5-------|
Ab--5---7---2---5-------|
Eb------5-------3-------|

eb----------------------|
bb----------------------|
gb--7-------4-----------|
Db--7---7---4---4--5----|
Ab--5---7---2---4--5----|
Eb------5-------2--3----|

and now I'm going to be...
[ Tab from: http://www.guitartabs.cc/tabs/h/hedley/on_my_own_tab.html ]
eb------------------------|
bb------------------------|
gb--7--6--4--------4------|
Db--7--6--4--7--5--2--7---|
Ab--5--4--2--7--5--2--7---|
Eb-----------5--3-----5---|

eb-------------------------|
bb-------------------------|
gb--7--6--4--------4-------|
Db--7--6--4--7--5--2--7--2-|
Ab--5--4--2--7--5--2--7--2-|
Eb-----------5--3-----5--0-|

eb----------5-----------|
bb-----7--5---7---5-----|
gb---7----------7-------|
Db------------------7---|
Ab----------------------|
Eb----------------------|

eb----------5-----------|
bb-----7--5---7---5-----|
gb---7----------7-------|
Db----------------------|
Ab----------------------|
Eb----------------------|

eb----------5-----------|
bb-----7--5---7---5-----|
gb---7----------7-------|
Db------------------7---|
Ab----------------------|
Eb----------------------|

eb---------------------------|
bb--3-2-3-2-3-2---3-2-5-3-2--|
gb--------------2------------|
Db---------------------------|
Ab---------------------------|
Eb---------------------------|

The rest is easy to figure out, just repeat!
Comments