Hedley - I Dont Believe It Chords & Tabs

 

I Dont Believe It Chords & Tabs

Hedley Chords & Tabs

Version: 1 Type: Tab

I Dont Believe It Tab

   
This is most of the song except for the solo.


INTRO
E|-----------------------------------------------------------------------|
B|-----------------------------------------------------------------------|
G|-----------------------------------------------------------------------|
D|-3-3-3-3--5-5-5-5--8-8-8-8--15-15-15-15--------------------------------|
A|-3-3-3-3--5-5-5-5--8-8-8-8--15-15-15-15--------------------------------|
D|-3-3-3-3--5-5-5-5--8-8-8-8--15-15-15-15--------------------------------|


VERSE
E|-----------------------------------------------|
B|-----------------------------------------------|
G|-----------------------------------------------|
D|-33333333-55555555-88888888-1010101010101010:--|
A|-33333333-55555555-88888888-1010101010101010---| Repeat how ever many times
D|-33333333-55555555-88888888-1010101010101010:--|

[ Tab from: http://www.guitartabs.cc/tabs/h/hedley/i_dont_believe_it_tab.html ]
 Pre-Chorus (O:32)
E|---------------------------------------------------------------------------|
B|---------------------------------------------------------------------------|
G|---------------------------------------------------------------------------|
D|-12-12-12-12-8-8-8-8-12-12-12-12-8-8-8-8-12-12-12-12-8-8-8-8-12-12-12-12-1-|
A|-12-12-12-12-8-8-8-8-12-12-12-12-8-8-8-8-12-12-12-12-8-8-8-8-12-12-12-12-1-|
D|-12-12-12-12-8-8-8-8-12-12-12-12-8-8-8-8-12-12-12-12-8-8-8-8-12-12-12-12-1-|


Chorus
E|-----------------------------------------------------------------------|
B|-----------------------------------------------------------------------|
G|-----------------------------------------------------------------------|
D|-8/3-10-10-10-10-------------------------------------------------------|
A|-8/3-10-10-10-10-------Repeat x w/e------------------------------------|
D|-8/3-10-10-10-10-------------------------------------------------------|


Have fun!!! I have no solo yet but i will add it later! :)