Hedley - Hand Grenade Chords & Tabs

 

Hedley Chords & Tabs

Version: 1 Type: Tab 0 ratings
1 star 2 stars 3 stars 4 stars 5 stars
comments

Hand Grenade Tab

   
Intro- just the drums  * = palm mute

Verse p1

e-------------------------------00002--00002-|
B-------------------------------00000--00000-|
G-66--44--------------44---------------------|
D-66--44--44--22--44--44--44--22-------------|
A-44--22--44--22--44--22--44--22-------------|
E---------22--00--22------22--00-------------|

Verse p2

e----------------------------------------------------------------------------|
B----------------------------------------------------------------------------|
G-66--44-4444444444-------------------------44-4444444444--------------------|
D-66--44-4444444444--44--22-2222222222--44--44-4444444444--44--22-2266664444-|
A-44--22-2222222222--44--22-2222222222--44--22-2222222222--44--22-2266664444-|
E--------**********--22--00-0000000000--22-----**********--22--00-0044442222-|
                            **********                            **********
Prechorus

e--------------------------|
B--------------------------|
G--------------------------|
D-2~-4~-6~-4~-2222222222-4-|
A-2~-4~-6~-4~-2222222222-4-|
E-0~-2~-4~-2~-0000000000-2-|
              **********

Chorus p1 2x

e-------------------------------------|
B-------------------------------------|
G-444444444---------------------------|
D-444444444222222222666666666444444444
A-222222222222222222666666666444444444
E----------000000000444444444222222222

Chorus p2 "If You Wanna See me"
[ Tab from: http://www.guitartabs.cc/tabs/h/hedley/hand_grenade_tab.html ]
e---------------------------------------------------|
B---------------------------------------------------|
G-------------------------44444444------------------|
D-222222224444444466666666444444442222222244444444--|
A-222222224444444466666666222222222222222244444444--|
E-000000002222222244444444--------0000000022222222--|

End Chorus p2 with this

e------------|
B------------|
G-----44-----|
D-66--44--22-|
A-66--22--22-|
E-44------00-|

Repeat Verse P2->Prechorus(last note of prechorus hit 8x)

Repeat Chorus p1 and p2

End Chorus p2 with this

e-------------------|
B-------------------|
G----4--------------|
D-6--4--2--6--2--44-|
A-6--2--2--6--2--44-|
E-4-----0--4--0--22-|

Bridge
e----------------------------------------------------------------------|
B----------------------------------------------------------------------|
G-------------44--4------------44-4444------------------------44444444-|
D-22--44--66--44--422--44--66--44-444422222222444444466666666644444444-|
A-22--44--66--22--222--44--66--22-222222222222444444446666666622222222-|
E-00--22--44-------00--22--44---------000000002222222244444444---------|
                                      |!!!!!!!Do this Part TWICE!!!!!!!|

Then Back to chorus p1 and p2

RIGHT AFTER chorus p2 do Outro 3x

e------------------|
B------------------|
G-44444444---------|
D-4444444422222222-
A-2222222222222222-
E---------00000000-

End With

e------------|
B------------|
G-44--44-4-4-|
D-44--44-4-4-|
A-22--22-2-2-|
E------------|
Comments