Hed Pe - Stevie Chords & Tabs

 

Stevie Chords & Tabs

Hed Pe Chords & Tabs

Version: 1 Type: Tab 0 ratings
1 star 2 stars 3 stars 4 stars 5 stars
comments

Stevie Tab

   
         
          (hed)P.E.
          ***Track 10 Stevie
          
          Intro, gtr1
          (-11-------9\11-/-9- shake around with 
          (-11-------9\11-/-9- wammy bar
          (-12------10\12-/10-
          (-13------11\13-/11-
          (-------------------
          (-------------------
          (-------------------
          
          Verse, gtr1
          (-11--------9-------
          (-11--------9-------
          (-12-------10-------
          (-13-------11-------
          (-------------------
          (-------------------
          (-------------------
          
          Bridge, gtr1 gtr2
          (------------------
          (------------------
          (------------------
          (------------------
          (------------------
          (--------5-------7-
          (-4--7-4---4-2-4---
          
          (---------------------------------------
          (-----------18----18-------------17/15--
          (-14/15-15-----15------15\14/15---------
          (---------------------------------------
          (---------------------------------------
          (---------------------------------------
          (---------------------------------------
          
          Chorus, gtr1 gtr2
          (-------------------------------------
          (-------------------------------------
          (-------------------------------------
          (-------------------------------------
          (-------------------------------------
          (-------------1-1-1-------------4-4-4-
          (-0-0-2-2-3-3-------0-0-2-2-3-3-------
          
          Outro A, gtr1 gtr2
          (------------------------------------ (gtr2 plays this, gtr1
          (------------------------------------  plays this with c# replacing 
          (------------------------------------  pick scrapes)
          (------------------------------------
          (------------------------------------
          (------------1-----------------4-----
          (-0-0->->--3--------0-0->->--3-------
          
          Outro B, gtr1 gtr2
          Chorus, gtr2 plays with 5ths...
          then same with bridge
[ Tab from: http://www.guitartabs.cc/tabs/h/hed_pe/stevie_tab.html ]
Comments