Hed Pe - Killing Time Chords & Tabs

 

Killing Time Chords & Tabs

Hed Pe Chords & Tabs

Version: 2 Type: Tab 0 ratings
1 star 2 stars 3 stars 4 stars 5 stars
comments

Killing Time Tab

   
killing time  -  (hed) pe

drop D tuning
this is my throw at this, it may be way off but i don't care. you can't find tab for hed ANyWHERE! so i thought i'd be nice.

intro
----------------------------------------------------------
----------------------------------------------------------
------5--------------5--------------5-------------5-------
----------------------------------------------------------
--3-3---3-3------3-3---3--------3-3---3-3-----3-3----3----
----------------------------------------------------------


Part-A
drums start..
repeat this 2 times
--------------------------------------------------------------  
--------------------------------------------------------------
------5--------------------------------5----------------------
--------------8\7-7-7--7\6-6-6---------------8\7-7-7--7\6-6-6-
--3-3---3-3---6\5-5-5--5\4-4-4-----3-3---3---6\5-5-5--5\4-4-4-
--x-x---x-x------------------------x-x---x--------------------


i'm sure this part is 2 guitars, but play the next 4 measures like this to add texture..
[ Tab from: http://www.guitartabs.cc/tabs/h/hed_pe/killing_time_tab_ver_2.html ]
PART-B
repeat this 3 times			play this once
-------------------------------		--------------------
-------------------------------		--------------------
------5-------8\7-7-7--7\6-6-6-		-----5---------------
--5-5-5-5-5---8\7-7-7--7\4-4-4-		-5-5-5-5-----------
--3-3---3-3---6\5-5-5--5\4-4-4-		-3-3---3-------------
--x-x---x-x--------------------		-x-x-----------------
slight wah..					baby i'm a ....


this is that eerie background part
Part-C
------------------------
------------------------
--8--7-----6--5---------
--8--7-----6--5---------
------------------------
------------------------

hardcore part..

---------------------------------
---------------------------------
---------------------------------
-0h1-1-1-1-1-1-1-1h2-2-2-2h3-3-3-
-0h1-1-1-1-1-1-1-1h2-2-2-2h3-3-3-
-0h1-1-1-1-1-1-1-1h2-2-2-2h3-3-3-

reapeat PART-A&B with a little more wah for the first two strums (Make it sound like a pissed off bobcat!)


with Part-C on one guitAr, play this a few times (listen to the cd)..

---------8--let ring----
------------------------
------------------------
--10--9-----------------
------------------------
------------------------

my a.a.d. is kicking in now so i have to go freak out.

if you want me to try and tab anymore hed, email me at sidebyrnes@hotmail.com- and i'll give you some lame version.

surf is up



Comments