Hed Pe - Killing Time Chords & Tabs

 

Killing Time Chords & Tabs

Hed Pe Chords & Tabs

Version: 1 Type: Tab 0 ratings
1 star 2 stars 3 stars 4 stars 5 stars
comments

Killing Time Tab

killing time is played with two guitars, this is just a version that
sounds right on one. tabbed by Mr.Winky, nutt13@wmn.net. i just 
changed it a bit. normal tuning.


intro:
|---------------------------------------------------|
|---------------------------------------------------|
|-----4-------------4------------4------------4-----|
|---------------------------------------------------|
|-2-2---2-2-----2-2---2-2----2-2---2-2----2-2---2-2-|
|---------------------------------------------------|
[ Tab from: http://www.guitartabs.cc/tabs/h/hed_pe/killing_time_tab.html ]
chorus1:
|--------------------------------|
|--------------------------------|
|-----------4--------------------|
|------------------7-7-7-6-6-6-4-|
|-------2-2---2-2--5-5-5-4-4-4-2-|
|-9\-0---------------------------|

verse:
|----------------|
|-10--9-----8-7--|
|-11-10-----9-7--|
|-12-11----10-9--|
|----------------|
|----------------|

chorus2:
|---------------------|
|---------------------|
|---------------------|
|-----5-5--5-6-6--8-9-|
|0/-3-5-5--5-6-6--8-9-|
|-----3-3--3-4-4--6-7-|

bridge:
N.H----del-------|| 
|---------------------------|
|------------[12]------8-7--|
|------[12]------------9-7--|
|-[12]----------------10-9--|
|---------------------------|
|---------------------------|

Comments