Hed Pe - Bartender Chords & Tabs

 

Bartender Chords & Tabs

Hed Pe Chords & Tabs

Version: 3 Type: Tab 0 ratings
1 star 2 stars 3 stars 4 stars 5 stars
comments

Bartender Tab

          ***Track 4 Bartender
          
          Intro/Verse, gtr1 gtr2
          (-------------------------------------------------------------------------
          (-------------------------------------------------------------------------
          (-12h13p12\11-12----11h12p11\10-11----10h11p10\8-8/10-8-------------------
          (----------------------------------------------------------11h12p11\9-11--
          (-------------------------------------------------------------------------
          (-------------------------------------------------------------------------
          (-------------------------------------------------------------------------
          
          (-------------------------------------------------------------------------
          (-----------------3-----------------3-------------------3---------------3-
          (-----------------5-----------------5-------------------5---------------5-
          (-----------------4-----------------4-------------------4---------------4-
          (--------------------------------4-------------------2--------------------
          (---------------------------------------------------------------------0---
          (--------------0----------------------------------------------------------
          
          Bridge, gtr1 gtr2
          (------------------------
          (------------------------
          (------------------------
          (------------------------
          (------------------------
          (---7---7----------------
          (-0---0---0-6--6-0--6-0--
          
          Chorus, gtr1 gtr2
          (-----------------------------------------
          (----------------0------0-----------------
          (----------------0------0-----------------
          (-5-(strum)-------------------------------
          (-5------------------------(now play------
          (-3----------5-5----4-4-----play 4 times)-
          (------------3-3----2-2-------------------
          
          Outro, gtr1 gtr2
          (----------------------------------
          (----------------------------------
          (----------------------------------
          (---21----21----19--19----19----19-
          (----------------------------------
          (---19----19----17--17----17----17-
          (-0----0-----0---------0-----0-----
[ Tab from: http://www.guitartabs.cc/tabs/h/hed_pe/bartender_tab_ver_3.html ]
Comments