Hed Pe - Bartender Chords & Tabs

 

Bartender Chords & Tabs

Hed Pe Chords & Tabs

Version: 1 Type: Bass Tab 0 ratings
1 star 2 stars 3 stars 4 stars 5 stars
comments

Bartender Bass Tab

Artist: (Hed) PE
Song: Bartender
Album: Broke

Intro
G|---------------------------------------------------------------|
D|------------------------------2--------------------------------|
A|---2-------4--------2------------------------------------------|
E|---------------------------------------------------------------|
B|---------------------------------------------------------------|

Chorus riff
G|---------------------------------------------------------------|
D|---------------------------------------------------------------|
A|-----2-----2---------------------------------------------------|
E|----------------1--1----1--------------------------------------|
B|-0-----0-----0--------0---0------------------------------------|
[ Tab from: http://www.guitartabs.cc/tabs/h/hed_pe/bartender_btab.html ]
Verse
G|---------------------------------------------------------------|
D|---------------------------------------------------------------|
A|--2---5---------5--5p4----2---5---------5--5p4-----------------|
E|---------------------------------1---0-------------------------|
B|---------3---2-------------------------------------------------|

"Take me there..."
G|---------------------------------------------------------------|
D|---------------------------------------------------------------|
A|-------------------------------(followed by--------------------|
E|---3--3--3--3-------------------chorus riff)-------------------|
B|---------------3-----2-----------------------------------------|

Intro thing that occurs again in middle of song
G|---------------------------------------------------------------|
D|---------------------------------------------------------------|
A|---2----/5--4----------2---------------------------------------|
E|------------------2----------2-------0-------------------------|
B|---------------------------------------------------------------|

/=slide up
p=pull off

im suprised nobody has tabbed this song yet, so i did, but i dont have time 
for the order, but it should be quite easy to work out.
====
Comments