Hed - I Got You Chords & Tabs

 

I Got You Chords & Tabs

Hed Chords & Tabs

Version: 1 Type: Tab 0 ratings
1 star 2 stars 3 stars 4 stars 5 stars
comments

I Got You Tab

Hed (p.e.)         Tuning: Dropped D
"I Got You"
Broke

 [intro/chorus]Distorted
e|------------------------------------------------------------------|
B|------------------------------------------------------------------|
G|---7-7-x-x-3-3-x-x------------------------------------------------|
D|-0-7-7-x-x-3-3-x-x-3--3-3-x-x-2-2-x-x-1---------------------------|
A|-0-5-5-x-x-1-1-x-x-3--3-3-x-x-2-2-x-x-1---------------------------|
D|-0-----------------3--3-3-x-x-2-2-x-x-1---------------------------|

 [verse]
e|------------------------------------------------------------------|
B|-14-13-14-13------------14-13-14-13-------------------------------|
G|------------------------------------------------------------------|
D|------------------------------------------------------------------|
A|------------------------------------------------------------------|
D|------------------------------------------------------------------|
[ Tab from: http://www.guitartabs.cc/tabs/h/hed/i_got_you_tab.html ]
     I got you...
e|------------------------------------------------------------------|
B|------------------------------------------------------------------|
G|---7--------4----7--------4----7--------4----7--------3-----------|
D|-0-7-0-3--0-4--0-7-0-3--0-4--0-7-0-3--0-4--0-7-0-3--0-3-----------|
A|-0-5-0-3--0-2--0-5-0-3--0-2--0-5-0-3--0-2--0-5-0-3--0-1-----------|
D|-0---0-3--0----0---0-3--0----0---0-3--0----0---0-3--0-------------|
              
   Now who wanna ride...
                   x3
e|-------------------|----------------------------------------------|
B|-------------------|----------------------------------------------|
G|---7-7-7-----4-4-4-|---7-7-7-----3-3-3----------------------------|
D|-0-7-7-7-3-0-4-4-4-|-0-7-7-7-3-0-3-3-3----------------------------|
A|-0-5-5-5-3-0-2-2-2-|-0-5-5-5-3-0-1-1-1----------------------------|
D|-0-------3-0-------|-0-------3-0----------------------------------|

 [end riff]
e|-------------------|
B|-------------------|
G|---7-7-7-----------|
D|-0-7-7-7-3---------|
A|-0-5-5-5-3---------|
D|-0-------3---------|

 Thats all the riffs in the song so Im not going
 to bother pasting them over and over again

 Tabbed by KingofWalrus
 Shaggy2vi@aol.com

 [lyrics]"I Got You"        


Nobody's waiting for you
Nobody's home
Nobody's listening to you
Cause nobody cares 
They will never change
They are slowly dying
They will never go away
They have nothing to lose

All my people come on
Choose your side
You're a long way from home, but not alone

They are afraid of you
Cause you know their secrets
I hear them praying for you
That you disappear
They are the enemy
We are the fallen
Now they have us on our knees
We have nothing to lose

(Chorus)
All my people come on
Choose your side
You're a long way from home, but not alone
Keep your head up
Keep it real
Stay down
You're a long way from home
You're not alone
I got you

The sky was blood red on New Years Day
One thousand candles light the way
Ten thousand souls are restless
Ten million hungry
Eat the rich, but pay me!
In the next episode&
I load and reload
It's kill or be killed
Sell or be sold
In this life, in this time, in my mind 
I gotta stay high, cause I got left behind     

(Chorus)

Now who wanna ride with me
BRING PAIN TO THE POWERS THAT BE
Young rebel start a riot with me
Hear me, feel me
Now who wanna ride with me
Get buck, get wild with me
Who will jump into the fire with me
Hear me, feel me









Comments